ISO-10303-21;
HEADER;
/* Generated by software containing ST-Developer
 * from STEP Tools, Inc. (www.steptools.com) 
 */

FILE_DESCRIPTION(
/* description */ ('Adapter Nullpunktspannsystem'),
/* implementation_level */ '2;1');

FILE_NAME(
/* name */ 
'Y:\\Futter\\Synchronisation Ordner\\(DBFxx_98-00) Aufnahmen f\X\FCr N
ullpunktspannsysteme\\DBF140x58_98-16 Adapter Nullpunktspannsystem.ipt.
step',
/* time_stamp */ '2022-01-28T15:14:17+01:00',
/* author */ ('D. Pustolla'),
/* organization */ (''),
/* preprocessor_version */ 'ST-DEVELOPER v15.2',
/* originating_system */ 'Autodesk Inventor 2014',
/* authorisation */ '');

FILE_SCHEMA (('AUTOMOTIVE_DESIGN { 1 0 10303 214 3 1 1 }'));
ENDSEC;

DATA;
#10=MECHANICAL_DESIGN_GEOMETRIC_PRESENTATION_REPRESENTATION('',(#13),#607);
#11=SHAPE_REPRESENTATION_RELATIONSHIP('SRR','None',#616,#12);
#12=ADVANCED_BREP_SHAPE_REPRESENTATION($,(#344),#606);
#13=STYLED_ITEM('',(#625),#344);
#14=CYLINDRICAL_SURFACE('',#351,42.5);
#15=CYLINDRICAL_SURFACE('',#356,8.);
#16=CYLINDRICAL_SURFACE('',#363,47.5);
#17=CYLINDRICAL_SURFACE('',#386,5.);
#18=CYLINDRICAL_SURFACE('',#387,2.75);
#19=CYLINDRICAL_SURFACE('',#391,5.);
#20=CYLINDRICAL_SURFACE('',#392,2.75);
#21=CYLINDRICAL_SURFACE('',#396,5.);
#22=CYLINDRICAL_SURFACE('',#397,2.75);
#23=CYLINDRICAL_SURFACE('',#398,1.2295);
#24=CYLINDRICAL_SURFACE('',#399,1.2295);
#25=CYLINDRICAL_SURFACE('',#400,1.2295);
#26=PLANE('',#349);
#27=PLANE('',#358);
#28=PLANE('',#365);
#29=PLANE('',#376);
#30=PLANE('',#383);
#31=PLANE('',#388);
#32=PLANE('',#393);
#33=FACE_BOUND('',#96,.T.);
#34=FACE_BOUND('',#98,.T.);
#35=FACE_BOUND('',#100,.T.);
#36=FACE_BOUND('',#102,.T.);
#37=FACE_BOUND('',#104,.T.);
#38=FACE_BOUND('',#106,.T.);
#39=FACE_BOUND('',#108,.T.);
#40=FACE_BOUND('',#110,.T.);
#41=FACE_BOUND('',#111,.T.);
#42=FACE_BOUND('',#112,.T.);
#43=FACE_BOUND('',#113,.T.);
#44=FACE_BOUND('',#114,.T.);
#45=FACE_BOUND('',#115,.T.);
#46=FACE_BOUND('',#116,.T.);
#47=FACE_BOUND('',#117,.T.);
#48=FACE_BOUND('',#118,.T.);
#49=FACE_BOUND('',#120,.T.);
#50=FACE_BOUND('',#122,.T.);
#51=FACE_BOUND('',#124,.T.);
#52=FACE_BOUND('',#125,.T.);
#53=FACE_BOUND('',#126,.T.);
#54=FACE_BOUND('',#127,.T.);
#55=FACE_BOUND('',#128,.T.);
#56=FACE_BOUND('',#129,.T.);
#57=FACE_BOUND('',#130,.T.);
#58=FACE_BOUND('',#132,.T.);
#59=FACE_BOUND('',#134,.T.);
#60=FACE_BOUND('',#136,.T.);
#61=FACE_BOUND('',#138,.T.);
#62=FACE_BOUND('',#140,.T.);
#63=FACE_BOUND('',#142,.T.);
#64=FACE_BOUND('',#144,.T.);
#65=FACE_BOUND('',#146,.T.);
#66=FACE_BOUND('',#148,.T.);
#67=FACE_BOUND('',#150,.T.);
#68=FACE_BOUND('',#152,.T.);
#69=FACE_BOUND('',#154,.T.);
#70=FACE_BOUND('',#156,.T.);
#71=FACE_OUTER_BOUND('',#95,.T.);
#72=FACE_OUTER_BOUND('',#97,.T.);
#73=FACE_OUTER_BOUND('',#99,.T.);
#74=FACE_OUTER_BOUND('',#101,.T.);
#75=FACE_OUTER_BOUND('',#103,.T.);
#76=FACE_OUTER_BOUND('',#105,.T.);
#77=FACE_OUTER_BOUND('',#107,.T.);
#78=FACE_OUTER_BOUND('',#109,.T.);
#79=FACE_OUTER_BOUND('',#119,.T.);
#80=FACE_OUTER_BOUND('',#121,.T.);
#81=FACE_OUTER_BOUND('',#123,.T.);
#82=FACE_OUTER_BOUND('',#131,.T.);
#83=FACE_OUTER_BOUND('',#133,.T.);
#84=FACE_OUTER_BOUND('',#135,.T.);
#85=FACE_OUTER_BOUND('',#137,.T.);
#86=FACE_OUTER_BOUND('',#139,.T.);
#87=FACE_OUTER_BOUND('',#141,.T.);
#88=FACE_OUTER_BOUND('',#143,.T.);
#89=FACE_OUTER_BOUND('',#145,.T.);
#90=FACE_OUTER_BOUND('',#147,.T.);
#91=FACE_OUTER_BOUND('',#149,.T.);
#92=FACE_OUTER_BOUND('',#151,.T.);
#93=FACE_OUTER_BOUND('',#153,.T.);
#94=FACE_OUTER_BOUND('',#155,.T.);
#95=EDGE_LOOP('',(#250));
#96=EDGE_LOOP('',(#251));
#97=EDGE_LOOP('',(#252));
#98=EDGE_LOOP('',(#253));
#99=EDGE_LOOP('',(#254));
#100=EDGE_LOOP('',(#255));
#101=EDGE_LOOP('',(#256));
#102=EDGE_LOOP('',(#257));
#103=EDGE_LOOP('',(#258));
#104=EDGE_LOOP('',(#259));
#105=EDGE_LOOP('',(#260));
#106=EDGE_LOOP('',(#261));
#107=EDGE_LOOP('',(#262));
#108=EDGE_LOOP('',(#263));
#109=EDGE_LOOP('',(#264));
#110=EDGE_LOOP('',(#265));
#111=EDGE_LOOP('',(#266));
#112=EDGE_LOOP('',(#267));
#113=EDGE_LOOP('',(#268));
#114=EDGE_LOOP('',(#269));
#115=EDGE_LOOP('',(#270));
#116=EDGE_LOOP('',(#271));
#117=EDGE_LOOP('',(#272));
#118=EDGE_LOOP('',(#273));
#119=EDGE_LOOP('',(#274));
#120=EDGE_LOOP('',(#275));
#121=EDGE_LOOP('',(#276));
#122=EDGE_LOOP('',(#277));
#123=EDGE_LOOP('',(#278));
#124=EDGE_LOOP('',(#279));
#125=EDGE_LOOP('',(#280));
#126=EDGE_LOOP('',(#281));
#127=EDGE_LOOP('',(#282));
#128=EDGE_LOOP('',(#283));
#129=EDGE_LOOP('',(#284));
#130=EDGE_LOOP('',(#285));
#131=EDGE_LOOP('',(#286));
#132=EDGE_LOOP('',(#287));
#133=EDGE_LOOP('',(#288));
#134=EDGE_LOOP('',(#289));
#135=EDGE_LOOP('',(#290));
#136=EDGE_LOOP('',(#291));
#137=EDGE_LOOP('',(#292));
#138=EDGE_LOOP('',(#293));
#139=EDGE_LOOP('',(#294));
#140=EDGE_LOOP('',(#295));
#141=EDGE_LOOP('',(#296));
#142=EDGE_LOOP('',(#297));
#143=EDGE_LOOP('',(#298));
#144=EDGE_LOOP('',(#299));
#145=EDGE_LOOP('',(#300));
#146=EDGE_LOOP('',(#301));
#147=EDGE_LOOP('',(#302));
#148=EDGE_LOOP('',(#303));
#149=EDGE_LOOP('',(#304));
#150=EDGE_LOOP('',(#305));
#151=EDGE_LOOP('',(#306));
#152=EDGE_LOOP('',(#307));
#153=EDGE_LOOP('',(#308));
#154=EDGE_LOOP('',(#309));
#155=EDGE_LOOP('',(#310));
#156=EDGE_LOOP('',(#311));
#157=CIRCLE('',#347,43.);
#158=CIRCLE('',#348,42.5);
#159=CIRCLE('',#350,47.);
#160=CIRCLE('',#352,42.5);
#161=CIRCLE('',#354,8.);
#162=CIRCLE('',#355,8.5);
#163=CIRCLE('',#357,8.);
#164=CIRCLE('',#359,15.4803847577293);
#165=CIRCLE('',#361,47.);
#166=CIRCLE('',#362,47.5);
#167=CIRCLE('',#364,47.5);
#168=CIRCLE('',#366,16.);
#169=CIRCLE('',#367,1.2295);
#170=CIRCLE('',#368,1.2295);
#171=CIRCLE('',#369,1.2295);
#172=CIRCLE('',#370,2.75);
#173=CIRCLE('',#371,2.75);
#174=CIRCLE('',#372,2.75);
#175=CIRCLE('',#375,8.5);
#176=CIRCLE('',#377,1.2295);
#177=CIRCLE('',#378,1.2295);
#178=CIRCLE('',#379,1.2295);
#179=CIRCLE('',#380,5.);
#180=CIRCLE('',#381,5.);
#181=CIRCLE('',#382,5.);
#182=CIRCLE('',#384,5.);
#183=CIRCLE('',#385,2.75);
#184=CIRCLE('',#389,5.);
#185=CIRCLE('',#390,2.75);
#186=CIRCLE('',#394,5.);
#187=CIRCLE('',#395,2.75);
#188=VERTEX_POINT('',#518);
#189=VERTEX_POINT('',#520);
#190=VERTEX_POINT('',#523);
#191=VERTEX_POINT('',#526);
#192=VERTEX_POINT('',#529);
#193=VERTEX_POINT('',#531);
#194=VERTEX_POINT('',#534);
#195=VERTEX_POINT('',#537);
#196=VERTEX_POINT('',#540);
#197=VERTEX_POINT('',#542);
#198=VERTEX_POINT('',#545);
#199=VERTEX_POINT('',#548);
#200=VERTEX_POINT('',#550);
#201=VERTEX_POINT('',#552);
#202=VERTEX_POINT('',#554);
#203=VERTEX_POINT('',#556);
#204=VERTEX_POINT('',#558);
#205=VERTEX_POINT('',#560);
#206=VERTEX_POINT('',#564);
#207=VERTEX_POINT('',#567);
#208=VERTEX_POINT('',#569);
#209=VERTEX_POINT('',#571);
#210=VERTEX_POINT('',#573);
#211=VERTEX_POINT('',#575);
#212=VERTEX_POINT('',#577);
#213=VERTEX_POINT('',#580);
#214=VERTEX_POINT('',#582);
#215=VERTEX_POINT('',#587);
#216=VERTEX_POINT('',#589);
#217=VERTEX_POINT('',#594);
#218=VERTEX_POINT('',#596);
#219=EDGE_CURVE('',#188,#188,#157,.T.);
#220=EDGE_CURVE('',#189,#189,#158,.T.);
#221=EDGE_CURVE('',#190,#190,#159,.T.);
#222=EDGE_CURVE('',#191,#191,#160,.T.);
#223=EDGE_CURVE('',#192,#192,#161,.T.);
#224=EDGE_CURVE('',#193,#193,#162,.T.);
#225=EDGE_CURVE('',#194,#194,#163,.T.);
#226=EDGE_CURVE('',#195,#195,#164,.T.);
#227=EDGE_CURVE('',#196,#196,#165,.T.);
#228=EDGE_CURVE('',#197,#197,#166,.T.);
#229=EDGE_CURVE('',#198,#198,#167,.T.);
#230=EDGE_CURVE('',#199,#199,#168,.T.);
#231=EDGE_CURVE('',#200,#200,#169,.T.);
#232=EDGE_CURVE('',#201,#201,#170,.T.);
#233=EDGE_CURVE('',#202,#202,#171,.T.);
#234=EDGE_CURVE('',#203,#203,#172,.T.);
#235=EDGE_CURVE('',#204,#204,#173,.T.);
#236=EDGE_CURVE('',#205,#205,#174,.T.);
#237=EDGE_CURVE('',#206,#206,#175,.T.);
#238=EDGE_CURVE('',#207,#207,#176,.T.);
#239=EDGE_CURVE('',#208,#208,#177,.T.);
#240=EDGE_CURVE('',#209,#209,#178,.T.);
#241=EDGE_CURVE('',#210,#210,#179,.T.);
#242=EDGE_CURVE('',#211,#211,#180,.T.);
#243=EDGE_CURVE('',#212,#212,#181,.T.);
#244=EDGE_CURVE('',#213,#213,#182,.T.);
#245=EDGE_CURVE('',#214,#214,#183,.T.);
#246=EDGE_CURVE('',#215,#215,#184,.T.);
#247=EDGE_CURVE('',#216,#216,#185,.T.);
#248=EDGE_CURVE('',#217,#217,#186,.T.);
#249=EDGE_CURVE('',#218,#218,#187,.T.);
#250=ORIENTED_EDGE('',*,*,#219,.T.);
#251=ORIENTED_EDGE('',*,*,#220,.T.);
#252=ORIENTED_EDGE('',*,*,#221,.F.);
#253=ORIENTED_EDGE('',*,*,#219,.F.);
#254=ORIENTED_EDGE('',*,*,#222,.F.);
#255=ORIENTED_EDGE('',*,*,#220,.F.);
#256=ORIENTED_EDGE('',*,*,#223,.T.);
#257=ORIENTED_EDGE('',*,*,#224,.T.);
#258=ORIENTED_EDGE('',*,*,#225,.F.);
#259=ORIENTED_EDGE('',*,*,#223,.F.);
#260=ORIENTED_EDGE('',*,*,#226,.F.);
#261=ORIENTED_EDGE('',*,*,#224,.F.);
#262=ORIENTED_EDGE('',*,*,#227,.T.);
#263=ORIENTED_EDGE('',*,*,#228,.T.);
#264=ORIENTED_EDGE('',*,*,#229,.F.);
#265=ORIENTED_EDGE('',*,*,#228,.F.);
#266=ORIENTED_EDGE('',*,*,#230,.T.);
#267=ORIENTED_EDGE('',*,*,#231,.T.);
#268=ORIENTED_EDGE('',*,*,#232,.T.);
#269=ORIENTED_EDGE('',*,*,#233,.T.);
#270=ORIENTED_EDGE('',*,*,#234,.T.);
#271=ORIENTED_EDGE('',*,*,#235,.T.);
#272=ORIENTED_EDGE('',*,*,#236,.T.);
#273=ORIENTED_EDGE('',*,*,#227,.F.);
#274=ORIENTED_EDGE('',*,*,#229,.T.);
#275=ORIENTED_EDGE('',*,*,#221,.T.);
#276=ORIENTED_EDGE('',*,*,#237,.T.);
#277=ORIENTED_EDGE('',*,*,#225,.T.);
#278=ORIENTED_EDGE('',*,*,#222,.T.);
#279=ORIENTED_EDGE('',*,*,#238,.T.);
#280=ORIENTED_EDGE('',*,*,#239,.T.);
#281=ORIENTED_EDGE('',*,*,#240,.T.);
#282=ORIENTED_EDGE('',*,*,#241,.T.);
#283=ORIENTED_EDGE('',*,*,#242,.T.);
#284=ORIENTED_EDGE('',*,*,#243,.T.);
#285=ORIENTED_EDGE('',*,*,#237,.F.);
#286=ORIENTED_EDGE('',*,*,#244,.T.);
#287=ORIENTED_EDGE('',*,*,#245,.F.);
#288=ORIENTED_EDGE('',*,*,#243,.F.);
#289=ORIENTED_EDGE('',*,*,#244,.F.);
#290=ORIENTED_EDGE('',*,*,#236,.F.);
#291=ORIENTED_EDGE('',*,*,#245,.T.);
#292=ORIENTED_EDGE('',*,*,#246,.T.);
#293=ORIENTED_EDGE('',*,*,#247,.F.);
#294=ORIENTED_EDGE('',*,*,#242,.F.);
#295=ORIENTED_EDGE('',*,*,#246,.F.);
#296=ORIENTED_EDGE('',*,*,#235,.F.);
#297=ORIENTED_EDGE('',*,*,#247,.T.);
#298=ORIENTED_EDGE('',*,*,#248,.T.);
#299=ORIENTED_EDGE('',*,*,#249,.F.);
#300=ORIENTED_EDGE('',*,*,#241,.F.);
#301=ORIENTED_EDGE('',*,*,#248,.F.);
#302=ORIENTED_EDGE('',*,*,#234,.F.);
#303=ORIENTED_EDGE('',*,*,#249,.T.);
#304=ORIENTED_EDGE('',*,*,#233,.F.);
#305=ORIENTED_EDGE('',*,*,#240,.F.);
#306=ORIENTED_EDGE('',*,*,#232,.F.);
#307=ORIENTED_EDGE('',*,*,#239,.F.);
#308=ORIENTED_EDGE('',*,*,#231,.F.);
#309=ORIENTED_EDGE('',*,*,#238,.F.);
#310=ORIENTED_EDGE('',*,*,#226,.T.);
#311=ORIENTED_EDGE('',*,*,#230,.F.);
#312=CONICAL_SURFACE('',#346,42.75,44.9999999999998);
#313=CONICAL_SURFACE('',#353,8.25,45.0000000000001);
#314=CONICAL_SURFACE('',#360,47.25,44.9999999999999);
#315=CONICAL_SURFACE('',#373,47.25,44.9999999999998);
#316=CONICAL_SURFACE('',#374,8.25,45.0000000000001);
#317=CONICAL_SURFACE('',#401,15.7401923788647,60.0000000000004);
#318=ADVANCED_FACE('',(#71,#33),#312,.F.);
#319=ADVANCED_FACE('',(#72,#34),#26,.T.);
#320=ADVANCED_FACE('',(#73,#35),#14,.F.);
#321=ADVANCED_FACE('',(#74,#36),#313,.F.);
#322=ADVANCED_FACE('',(#75,#37),#15,.F.);
#323=ADVANCED_FACE('',(#76,#38),#27,.T.);
#324=ADVANCED_FACE('',(#77,#39),#314,.T.);
#325=ADVANCED_FACE('',(#78,#40),#16,.T.);
#326=ADVANCED_FACE('',(#41,#42,#43,#44,#45,#46,#47,#48),#28,.T.);
#327=ADVANCED_FACE('',(#79,#49),#315,.T.);
#328=ADVANCED_FACE('',(#80,#50),#316,.F.);
#329=ADVANCED_FACE('',(#81,#51,#52,#53,#54,#55,#56,#57),#29,.T.);
#330=ADVANCED_FACE('',(#82,#58),#30,.T.);
#331=ADVANCED_FACE('',(#83,#59),#17,.F.);
#332=ADVANCED_FACE('',(#84,#60),#18,.F.);
#333=ADVANCED_FACE('',(#85,#61),#31,.T.);
#334=ADVANCED_FACE('',(#86,#62),#19,.F.);
#335=ADVANCED_FACE('',(#87,#63),#20,.F.);
#336=ADVANCED_FACE('',(#88,#64),#32,.T.);
#337=ADVANCED_FACE('',(#89,#65),#21,.F.);
#338=ADVANCED_FACE('',(#90,#66),#22,.F.);
#339=ADVANCED_FACE('',(#91,#67),#23,.F.);
#340=ADVANCED_FACE('',(#92,#68),#24,.F.);
#341=ADVANCED_FACE('',(#93,#69),#25,.F.);
#342=ADVANCED_FACE('',(#94,#70),#317,.F.);
#343=CLOSED_SHELL('',(#318,#319,#320,#321,#322,#323,#324,#325,#326,#327,
#328,#329,#330,#331,#332,#333,#334,#335,#336,#337,#338,#339,#340,#341,#342));
#344=MANIFOLD_SOLID_BREP('Volumenk\X\F6rper1',#343);
#345=AXIS2_PLACEMENT_3D('placement',#516,#402,#403);
#346=AXIS2_PLACEMENT_3D('',#517,#404,#405);
#347=AXIS2_PLACEMENT_3D('',#519,#406,#407);
#348=AXIS2_PLACEMENT_3D('',#521,#408,#409);
#349=AXIS2_PLACEMENT_3D('',#522,#410,#411);
#350=AXIS2_PLACEMENT_3D('',#524,#412,#413);
#351=AXIS2_PLACEMENT_3D('',#525,#414,#415);
#352=AXIS2_PLACEMENT_3D('',#527,#416,#417);
#353=AXIS2_PLACEMENT_3D('',#528,#418,#419);
#354=AXIS2_PLACEMENT_3D('',#530,#420,#421);
#355=AXIS2_PLACEMENT_3D('',#532,#422,#423);
#356=AXIS2_PLACEMENT_3D('',#533,#424,#425);
#357=AXIS2_PLACEMENT_3D('',#535,#426,#427);
#358=AXIS2_PLACEMENT_3D('',#536,#428,#429);
#359=AXIS2_PLACEMENT_3D('',#538,#430,#431);
#360=AXIS2_PLACEMENT_3D('',#539,#432,#433);
#361=AXIS2_PLACEMENT_3D('',#541,#434,#435);
#362=AXIS2_PLACEMENT_3D('',#543,#436,#437);
#363=AXIS2_PLACEMENT_3D('',#544,#438,#439);
#364=AXIS2_PLACEMENT_3D('',#546,#440,#441);
#365=AXIS2_PLACEMENT_3D('',#547,#442,#443);
#366=AXIS2_PLACEMENT_3D('',#549,#444,#445);
#367=AXIS2_PLACEMENT_3D('',#551,#446,#447);
#368=AXIS2_PLACEMENT_3D('',#553,#448,#449);
#369=AXIS2_PLACEMENT_3D('',#555,#450,#451);
#370=AXIS2_PLACEMENT_3D('',#557,#452,#453);
#371=AXIS2_PLACEMENT_3D('',#559,#454,#455);
#372=AXIS2_PLACEMENT_3D('',#561,#456,#457);
#373=AXIS2_PLACEMENT_3D('',#562,#458,#459);
#374=AXIS2_PLACEMENT_3D('',#563,#460,#461);
#375=AXIS2_PLACEMENT_3D('',#565,#462,#463);
#376=AXIS2_PLACEMENT_3D('',#566,#464,#465);
#377=AXIS2_PLACEMENT_3D('',#568,#466,#467);
#378=AXIS2_PLACEMENT_3D('',#570,#468,#469);
#379=AXIS2_PLACEMENT_3D('',#572,#470,#471);
#380=AXIS2_PLACEMENT_3D('',#574,#472,#473);
#381=AXIS2_PLACEMENT_3D('',#576,#474,#475);
#382=AXIS2_PLACEMENT_3D('',#578,#476,#477);
#383=AXIS2_PLACEMENT_3D('',#579,#478,#479);
#384=AXIS2_PLACEMENT_3D('',#581,#480,#481);
#385=AXIS2_PLACEMENT_3D('',#583,#482,#483);
#386=AXIS2_PLACEMENT_3D('',#584,#484,#485);
#387=AXIS2_PLACEMENT_3D('',#585,#486,#487);
#388=AXIS2_PLACEMENT_3D('',#586,#488,#489);
#389=AXIS2_PLACEMENT_3D('',#588,#490,#491);
#390=AXIS2_PLACEMENT_3D('',#590,#492,#493);
#391=AXIS2_PLACEMENT_3D('',#591,#494,#495);
#392=AXIS2_PLACEMENT_3D('',#592,#496,#497);
#393=AXIS2_PLACEMENT_3D('',#593,#498,#499);
#394=AXIS2_PLACEMENT_3D('',#595,#500,#501);
#395=AXIS2_PLACEMENT_3D('',#597,#502,#503);
#396=AXIS2_PLACEMENT_3D('',#598,#504,#505);
#397=AXIS2_PLACEMENT_3D('',#599,#506,#507);
#398=AXIS2_PLACEMENT_3D('',#600,#508,#509);
#399=AXIS2_PLACEMENT_3D('',#601,#510,#511);
#400=AXIS2_PLACEMENT_3D('',#602,#512,#513);
#401=AXIS2_PLACEMENT_3D('',#603,#514,#515);
#402=DIRECTION('axis',(0.,0.,1.));
#403=DIRECTION('refdir',(1.,0.,0.));
#404=DIRECTION('center_axis',(1.,0.,0.));
#405=DIRECTION('ref_axis',(0.,-1.,0.));
#406=DIRECTION('center_axis',(1.,0.,0.));
#407=DIRECTION('ref_axis',(0.,-1.,0.));
#408=DIRECTION('center_axis',(-1.,0.,0.));
#409=DIRECTION('ref_axis',(0.,-1.,0.));
#410=DIRECTION('center_axis',(1.,0.,0.));
#411=DIRECTION('ref_axis',(0.,0.,-1.));
#412=DIRECTION('center_axis',(-1.,0.,0.));
#413=DIRECTION('ref_axis',(0.,-1.,0.));
#414=DIRECTION('center_axis',(1.,0.,0.));
#415=DIRECTION('ref_axis',(0.,1.,0.));
#416=DIRECTION('center_axis',(1.,0.,0.));
#417=DIRECTION('ref_axis',(0.,0.,-1.));
#418=DIRECTION('center_axis',(-1.,0.,0.));
#419=DIRECTION('ref_axis',(0.,-1.,0.));
#420=DIRECTION('center_axis',(1.,0.,0.));
#421=DIRECTION('ref_axis',(0.,-1.,0.));
#422=DIRECTION('center_axis',(-1.,0.,0.));
#423=DIRECTION('ref_axis',(0.,-1.,0.));
#424=DIRECTION('center_axis',(1.,0.,0.));
#425=DIRECTION('ref_axis',(0.,1.,0.));
#426=DIRECTION('center_axis',(-1.,0.,0.));
#427=DIRECTION('ref_axis',(0.,-1.,0.));
#428=DIRECTION('center_axis',(-1.,0.,0.));
#429=DIRECTION('ref_axis',(0.,0.,1.));
#430=DIRECTION('center_axis',(1.,0.,0.));
#431=DIRECTION('ref_axis',(0.,0.,-1.));
#432=DIRECTION('center_axis',(1.,0.,0.));
#433=DIRECTION('ref_axis',(0.,-1.,0.));
#434=DIRECTION('center_axis',(1.,0.,0.));
#435=DIRECTION('ref_axis',(0.,-1.,0.));
#436=DIRECTION('center_axis',(-1.,0.,0.));
#437=DIRECTION('ref_axis',(0.,-1.,0.));
#438=DIRECTION('center_axis',(1.,0.,0.));
#439=DIRECTION('ref_axis',(0.,1.,0.));
#440=DIRECTION('center_axis',(1.,0.,0.));
#441=DIRECTION('ref_axis',(0.,-1.,0.));
#442=DIRECTION('center_axis',(-1.,0.,0.));
#443=DIRECTION('ref_axis',(0.,0.,1.));
#444=DIRECTION('center_axis',(1.,0.,0.));
#445=DIRECTION('ref_axis',(0.,0.,-1.));
#446=DIRECTION('center_axis',(1.,0.,0.));
#447=DIRECTION('ref_axis',(0.,0.,-1.));
#448=DIRECTION('center_axis',(1.,0.,0.));
#449=DIRECTION('ref_axis',(0.,0.866025403784439,0.5));
#450=DIRECTION('center_axis',(1.,0.,0.));
#451=DIRECTION('ref_axis',(0.,-0.866025403784438,0.5));
#452=DIRECTION('center_axis',(1.,0.,0.));
#453=DIRECTION('ref_axis',(0.,0.,-1.));
#454=DIRECTION('center_axis',(1.,0.,0.));
#455=DIRECTION('ref_axis',(0.,0.866025403784439,0.5));
#456=DIRECTION('center_axis',(1.,0.,0.));
#457=DIRECTION('ref_axis',(0.,-0.866025403784438,0.5));
#458=DIRECTION('center_axis',(-1.,0.,0.));
#459=DIRECTION('ref_axis',(0.,-1.,0.));
#460=DIRECTION('center_axis',(1.,0.,0.));
#461=DIRECTION('ref_axis',(0.,-1.,0.));
#462=DIRECTION('center_axis',(1.,0.,0.));
#463=DIRECTION('ref_axis',(0.,-1.,0.));
#464=DIRECTION('center_axis',(1.,0.,0.));
#465=DIRECTION('ref_axis',(0.,0.,-1.));
#466=DIRECTION('center_axis',(-1.,0.,0.));
#467=DIRECTION('ref_axis',(0.,0.,-1.));
#468=DIRECTION('center_axis',(-1.,0.,0.));
#469=DIRECTION('ref_axis',(0.,0.866025403784439,0.5));
#470=DIRECTION('center_axis',(-1.,0.,0.));
#471=DIRECTION('ref_axis',(0.,-0.866025403784438,0.5));
#472=DIRECTION('center_axis',(-1.,0.,0.));
#473=DIRECTION('ref_axis',(0.,0.,-1.));
#474=DIRECTION('center_axis',(-1.,0.,0.));
#475=DIRECTION('ref_axis',(0.,0.866025403784439,0.5));
#476=DIRECTION('center_axis',(-1.,0.,0.));
#477=DIRECTION('ref_axis',(0.,-0.866025403784438,0.5));
#478=DIRECTION('center_axis',(1.,0.,0.));
#479=DIRECTION('ref_axis',(0.,-0.866025403784438,0.500000000000001));
#480=DIRECTION('center_axis',(1.,0.,0.));
#481=DIRECTION('ref_axis',(0.,-0.866025403784438,0.5));
#482=DIRECTION('center_axis',(1.,0.,0.));
#483=DIRECTION('ref_axis',(0.,-0.866025403784438,0.5));
#484=DIRECTION('center_axis',(1.,0.,0.));
#485=DIRECTION('ref_axis',(0.,-0.866025403784438,0.5));
#486=DIRECTION('center_axis',(1.,0.,0.));
#487=DIRECTION('ref_axis',(0.,-0.866025403784438,0.5));
#488=DIRECTION('center_axis',(1.,0.,0.));
#489=DIRECTION('ref_axis',(0.,0.866025403784439,0.5));
#490=DIRECTION('center_axis',(1.,0.,0.));
#491=DIRECTION('ref_axis',(0.,0.866025403784439,0.5));
#492=DIRECTION('center_axis',(1.,0.,0.));
#493=DIRECTION('ref_axis',(0.,0.866025403784439,0.5));
#494=DIRECTION('center_axis',(1.,0.,0.));
#495=DIRECTION('ref_axis',(0.,0.866025403784439,0.5));
#496=DIRECTION('center_axis',(1.,0.,0.));
#497=DIRECTION('ref_axis',(0.,0.866025403784439,0.5));
#498=DIRECTION('center_axis',(1.,0.,0.));
#499=DIRECTION('ref_axis',(0.,0.,-1.));
#500=DIRECTION('center_axis',(1.,0.,0.));
#501=DIRECTION('ref_axis',(0.,0.,-1.));
#502=DIRECTION('center_axis',(1.,0.,0.));
#503=DIRECTION('ref_axis',(0.,0.,-1.));
#504=DIRECTION('center_axis',(1.,0.,0.));
#505=DIRECTION('ref_axis',(0.,0.,-1.));
#506=DIRECTION('center_axis',(1.,0.,0.));
#507=DIRECTION('ref_axis',(0.,0.,-1.));
#508=DIRECTION('center_axis',(1.,0.,0.));
#509=DIRECTION('ref_axis',(0.,-0.866025403784438,0.5));
#510=DIRECTION('center_axis',(1.,0.,0.));
#511=DIRECTION('ref_axis',(0.,0.866025403784439,0.5));
#512=DIRECTION('center_axis',(1.,0.,0.));
#513=DIRECTION('ref_axis',(0.,0.,-1.));
#514=DIRECTION('center_axis',(-1.,0.,0.));
#515=DIRECTION('ref_axis',(0.,1.,0.));
#516=CARTESIAN_POINT('',(0.,0.,0.));
#517=CARTESIAN_POINT('Origin',(0.613375415697126,-3.38120886734415,0.));
#518=CARTESIAN_POINT('',(0.863375415697126,39.6187911326559,5.26598123633362E-015));
#519=CARTESIAN_POINT('Origin',(0.863375415697126,-3.38120886734415,0.));
#520=CARTESIAN_POINT('',(0.363375415697125,39.1187911326559,-5.20474889637625E-015));
#521=CARTESIAN_POINT('Origin',(0.363375415697125,-3.38120886734415,0.));
#522=CARTESIAN_POINT('Origin',(0.863375415697126,39.1187911326559,0.));
#523=CARTESIAN_POINT('',(0.863375415697126,43.6187911326559,-5.75583995599256E-015));
#524=CARTESIAN_POINT('Origin',(0.863375415697126,-3.38120886734415,0.));
#525=CARTESIAN_POINT('Origin',(-1.13662458430287,-3.38120886734415,0.));
#526=CARTESIAN_POINT('',(-3.13662458430287,39.1187911326559,0.));
#527=CARTESIAN_POINT('Origin',(-3.13662458430287,-3.38120886734415,0.));
#528=CARTESIAN_POINT('Origin',(-12.5866245843029,-3.38120886734415,0.));
#529=CARTESIAN_POINT('',(-12.3366245843029,4.61879113265585,9.79717439317883E-016));
#530=CARTESIAN_POINT('Origin',(-12.3366245843029,-3.38120886734415,0.));
#531=CARTESIAN_POINT('',(-12.8366245843029,5.11879113265585,-1.04094977927525E-015));
#532=CARTESIAN_POINT('Origin',(-12.8366245843029,-3.38120886734415,0.));
#533=CARTESIAN_POINT('Origin',(-7.98662458430287,-3.38120886734415,0.));
#534=CARTESIAN_POINT('',(-3.63662458430287,4.61879113265585,-9.79717439317883E-016));
#535=CARTESIAN_POINT('Origin',(-3.63662458430287,-3.38120886734415,0.));
#536=CARTESIAN_POINT('Origin',(-12.8366245843029,12.0991758903852,0.));
#537=CARTESIAN_POINT('',(-12.8366245843029,12.0991758903852,0.));
#538=CARTESIAN_POINT('Origin',(-12.8366245843029,-3.38120886734415,0.));
#539=CARTESIAN_POINT('Origin',(-12.8866245843029,-3.38120886734415,0.));
#540=CARTESIAN_POINT('',(-13.1366245843029,43.6187911326559,5.75583995599256E-015));
#541=CARTESIAN_POINT('Origin',(-13.1366245843029,-3.38120886734415,0.));
#542=CARTESIAN_POINT('',(-12.6366245843029,44.1187911326559,-5.81707229594993E-015));
#543=CARTESIAN_POINT('Origin',(-12.6366245843029,-3.38120886734415,0.));
#544=CARTESIAN_POINT('Origin',(-6.13662458430289,-3.38120886734415,0.));
#545=CARTESIAN_POINT('',(0.363375415697125,44.1187911326559,5.81707229594993E-015));
#546=CARTESIAN_POINT('Origin',(0.363375415697125,-3.38120886734415,0.));
#547=CARTESIAN_POINT('Origin',(-13.1366245843029,44.1187911326559,0.));
#548=CARTESIAN_POINT('',(-13.1366245843029,12.6187911326559,0.));
#549=CARTESIAN_POINT('Origin',(-13.1366245843029,-3.38120886734415,0.));
#550=CARTESIAN_POINT('',(-13.1366245843029,29.6187911326559,1.2295));
#551=CARTESIAN_POINT('Origin',(-13.1366245843029,29.6187911326559,0.));
#552=CARTESIAN_POINT('',(-13.1366245843029,-20.9459871012971,27.9640883248865));
#553=CARTESIAN_POINT('Origin',(-13.1366245843029,-19.8812088673441,28.5788383248865));
#554=CARTESIAN_POINT('',(-13.1366245843029,-18.8164306333912,-29.1935883248865));
#555=CARTESIAN_POINT('Origin',(-13.1366245843029,-19.8812088673442,-28.5788383248865));
#556=CARTESIAN_POINT('',(-13.1366245843029,-25.3812088673441,2.75));
#557=CARTESIAN_POINT('Origin',(-13.1366245843029,-25.3812088673441,0.));
#558=CARTESIAN_POINT('',(-13.1366245843029,5.23722127224864,-20.4275588832577));
#559=CARTESIAN_POINT('Origin',(-13.1366245843029,7.61879113265585,-19.0525588832577));
#560=CARTESIAN_POINT('',(-13.1366245843029,10.0003609930631,17.6775588832576));
#561=CARTESIAN_POINT('Origin',(-13.1366245843029,7.61879113265586,19.0525588832576));
#562=CARTESIAN_POINT('Origin',(0.613375415697126,-3.38120886734415,0.));
#563=CARTESIAN_POINT('Origin',(-3.38662458430287,-3.38120886734415,0.));
#564=CARTESIAN_POINT('',(-3.13662458430287,5.11879113265585,1.04094977927525E-015));
#565=CARTESIAN_POINT('Origin',(-3.13662458430287,-3.38120886734415,0.));
#566=CARTESIAN_POINT('Origin',(-3.13662458430287,4.61879113265585,0.));
#567=CARTESIAN_POINT('',(-3.13662458430287,29.6187911326559,-1.2295));
#568=CARTESIAN_POINT('Origin',(-3.13662458430287,29.6187911326559,0.));
#569=CARTESIAN_POINT('',(-3.13662458430287,-18.8164306333912,29.1935883248865));
#570=CARTESIAN_POINT('Origin',(-3.13662458430287,-19.8812088673441,28.5788383248865));
#571=CARTESIAN_POINT('',(-3.13662458430287,-20.9459871012971,-27.9640883248865));
#572=CARTESIAN_POINT('Origin',(-3.13662458430287,-19.8812088673442,-28.5788383248865));
#573=CARTESIAN_POINT('',(-3.13662458430287,-25.3812088673441,-5.));
#574=CARTESIAN_POINT('Origin',(-3.13662458430287,-25.3812088673441,0.));
#575=CARTESIAN_POINT('',(-3.13662458430287,11.948918151578,-16.5525588832577));
#576=CARTESIAN_POINT('Origin',(-3.13662458430287,7.61879113265585,-19.0525588832577));
#577=CARTESIAN_POINT('',(-3.13662458430287,3.28866411373367,21.5525588832577));
#578=CARTESIAN_POINT('Origin',(-3.13662458430287,7.61879113265586,19.0525588832576));
#579=CARTESIAN_POINT('Origin',(-8.83662458430287,7.61879113265586,19.0525588832576));
#580=CARTESIAN_POINT('',(-8.83662458430287,3.28866411373367,21.5525588832577));
#581=CARTESIAN_POINT('Origin',(-8.83662458430287,7.61879113265586,19.0525588832576));
#582=CARTESIAN_POINT('',(-8.83662458430287,10.0003609930631,17.6775588832576));
#583=CARTESIAN_POINT('Origin',(-8.83662458430287,7.61879113265586,19.0525588832576));
#584=CARTESIAN_POINT('Origin',(-5.98662458430287,7.61879113265586,19.0525588832576));
#585=CARTESIAN_POINT('Origin',(-138.214379969858,7.61879113265586,19.0525588832576));
#586=CARTESIAN_POINT('Origin',(-8.83662458430287,7.61879113265585,-19.0525588832577));
#587=CARTESIAN_POINT('',(-8.83662458430287,11.948918151578,-16.5525588832577));
#588=CARTESIAN_POINT('Origin',(-8.83662458430287,7.61879113265585,-19.0525588832577));
#589=CARTESIAN_POINT('',(-8.83662458430287,5.23722127224864,-20.4275588832577));
#590=CARTESIAN_POINT('Origin',(-8.83662458430287,7.61879113265585,-19.0525588832577));
#591=CARTESIAN_POINT('Origin',(-5.98662458430287,7.61879113265585,-19.0525588832577));
#592=CARTESIAN_POINT('Origin',(-138.214379969858,7.61879113265585,-19.0525588832577));
#593=CARTESIAN_POINT('Origin',(-8.83662458430287,-25.3812088673441,0.));
#594=CARTESIAN_POINT('',(-8.83662458430287,-25.3812088673441,-5.));
#595=CARTESIAN_POINT('Origin',(-8.83662458430287,-25.3812088673441,0.));
#596=CARTESIAN_POINT('',(-8.83662458430287,-25.3812088673441,2.75));
#597=CARTESIAN_POINT('Origin',(-8.83662458430287,-25.3812088673441,0.));
#598=CARTESIAN_POINT('Origin',(-5.98662458430287,-25.3812088673441,0.));
#599=CARTESIAN_POINT('Origin',(-138.214379969858,-25.3812088673441,0.));
#600=CARTESIAN_POINT('Origin',(-138.214379969858,-19.8812088673442,-28.5788383248865));
#601=CARTESIAN_POINT('Origin',(-138.214379969858,-19.8812088673441,28.5788383248865));
#602=CARTESIAN_POINT('Origin',(-138.214379969858,29.6187911326559,0.));
#603=CARTESIAN_POINT('Origin',(-12.9866245843029,-3.38120886734415,0.));
#604=UNCERTAINTY_MEASURE_WITH_UNIT(LENGTH_MEASURE(0.01),#608,
'DISTANCE_ACCURACY_VALUE',
'Maximum model space distance between geometric entities at asserted c
onnectivities');
#605=UNCERTAINTY_MEASURE_WITH_UNIT(LENGTH_MEASURE(1.E-006),#608,
'DISTANCE_ACCURACY_VALUE',
'Maximum model space distance between geometric entities at asserted c
onnectivities');
#606=(
GEOMETRIC_REPRESENTATION_CONTEXT(3)
GLOBAL_UNCERTAINTY_ASSIGNED_CONTEXT((#604))
GLOBAL_UNIT_ASSIGNED_CONTEXT((#608,#611,#609))
REPRESENTATION_CONTEXT('','3D')
);
#607=(
GEOMETRIC_REPRESENTATION_CONTEXT(3)
GLOBAL_UNCERTAINTY_ASSIGNED_CONTEXT((#605))
GLOBAL_UNIT_ASSIGNED_CONTEXT((#608,#611,#609))
REPRESENTATION_CONTEXT('','3D')
);
#608=(
LENGTH_UNIT()
NAMED_UNIT(*)
SI_UNIT(.MILLI.,.METRE.)
);
#609=(
NAMED_UNIT(*)
SI_UNIT($,.STERADIAN.)
SOLID_ANGLE_UNIT()
);
#610=DIMENSIONAL_EXPONENTS(0.,0.,0.,0.,0.,0.,0.);
#611=(
CONVERSION_BASED_UNIT('degree',#613)
NAMED_UNIT(#610)
PLANE_ANGLE_UNIT()
);
#612=(
NAMED_UNIT(*)
PLANE_ANGLE_UNIT()
SI_UNIT($,.RADIAN.)
);
#613=PLANE_ANGLE_MEASURE_WITH_UNIT(PLANE_ANGLE_MEASURE(0.01745329252),#612);
#614=SHAPE_DEFINITION_REPRESENTATION(#615,#616);
#615=PRODUCT_DEFINITION_SHAPE('',$,#618);
#616=SHAPE_REPRESENTATION('',(#345),#606);
#617=PRODUCT_DEFINITION_CONTEXT('part definition',#622,'design');
#618=PRODUCT_DEFINITION('DBF140x58_98-16 Adapter Nullpunktspannsystem',
'DBF140x58_98-16 Adapter Nullpunktspannsystem',#619,#617);
#619=PRODUCT_DEFINITION_FORMATION('',$,#624);
#620=PRODUCT_RELATED_PRODUCT_CATEGORY(
'DBF140x58_98-16 Adapter Nullpunktspannsystem',
'DBF140x58_98-16 Adapter Nullpunktspannsystem',(#624));
#621=APPLICATION_PROTOCOL_DEFINITION('international standard',
'automotive_design',2009,#622);
#622=APPLICATION_CONTEXT(
'Core Data for Automotive Mechanical Design Process');
#623=PRODUCT_CONTEXT('part definition',#622,'mechanical');
#624=PRODUCT('DBF140x58_98-16 Adapter Nullpunktspannsystem',
'DBF140x58_98-16 Adapter Nullpunktspannsystem',$,(#623));
#625=PRESENTATION_STYLE_ASSIGNMENT((#626));
#626=SURFACE_STYLE_USAGE(.BOTH.,#627);
#627=SURFACE_SIDE_STYLE($,(#628));
#628=SURFACE_STYLE_FILL_AREA(#629);
#629=FILL_AREA_STYLE($,(#630));
#630=FILL_AREA_STYLE_COLOUR($,#631);
#631=COLOUR_RGB('',0.501960784313725,0.501960784313725,0.501960784313725);
ENDSEC;
END-ISO-10303-21;
