ISO-10303-21;
HEADER;
/* Generated by software containing ST-Developer
 * from STEP Tools, Inc. (www.steptools.com) 
 */

FILE_DESCRIPTION(
/* description */ ('Aufnahme MK2'),
/* implementation_level */ '2;1');

FILE_NAME(
/* name */ 
'Y:\\Futter\\Synchronisation Ordner\\(2) Dateien f\X\FCr Webseite\\Mor
se MK2\\DBF160_99-01b Aufnahme MK2.stp',
/* time_stamp */ '2022-01-29T18:54:45+01:00',
/* author */ ('MKoch'),
/* organization */ (''),
/* preprocessor_version */ 'ST-DEVELOPER v15.2',
/* originating_system */ 'Autodesk Inventor 2014',
/* authorisation */ '');

FILE_SCHEMA (('CONFIG_CONTROL_DESIGN'));
ENDSEC;

DATA;
#10=MECHANICAL_DESIGN_GEOMETRIC_PRESENTATION_REPRESENTATION('',(#13),#545);
#11=SHAPE_REPRESENTATION_RELATIONSHIP('SRR','None',#554,#12);
#12=ADVANCED_BREP_SHAPE_REPRESENTATION($,(#306),#544);
#13=STYLED_ITEM('',(#563),#306);
#14=CONICAL_SURFACE('',#321,13.75,45.0000000000001);
#15=CONICAL_SURFACE('',#327,33.75,45.0000000000005);
#16=CONICAL_SURFACE('',#336,33.75,45.0000000000005);
#17=CONICAL_SURFACE('',#337,6.75,45.0000000000001);
#18=CONICAL_SURFACE('',#343,7.20370767182383,45.7154999999998);
#19=CONICAL_SURFACE('',#347,8.1574521400719,1.431);
#20=CONICAL_SURFACE('',#349,10.5,45.);
#21=CONICAL_SURFACE('',#358,10.5,45.);
#22=PLANE('',#314);
#23=PLANE('',#326);
#24=PLANE('',#332);
#25=PLANE('',#342);
#26=PLANE('',#346);
#27=PLANE('',#352);
#28=TOROIDAL_SURFACE('',#311,10.4,0.4);
#29=FACE_BOUND('',#84,.T.);
#30=FACE_BOUND('',#86,.T.);
#31=FACE_BOUND('',#88,.T.);
#32=FACE_BOUND('',#89,.T.);
#33=FACE_BOUND('',#90,.T.);
#34=FACE_BOUND('',#91,.T.);
#35=FACE_BOUND('',#93,.T.);
#36=FACE_BOUND('',#95,.T.);
#37=FACE_BOUND('',#97,.T.);
#38=FACE_BOUND('',#98,.T.);
#39=FACE_BOUND('',#99,.T.);
#40=FACE_BOUND('',#101,.T.);
#41=FACE_BOUND('',#103,.T.);
#42=FACE_BOUND('',#104,.T.);
#43=FACE_BOUND('',#105,.T.);
#44=FACE_BOUND('',#106,.T.);
#45=FACE_BOUND('',#107,.T.);
#46=FACE_BOUND('',#108,.T.);
#47=FACE_BOUND('',#110,.T.);
#48=FACE_BOUND('',#112,.T.);
#49=FACE_BOUND('',#114,.T.);
#50=FACE_BOUND('',#115,.T.);
#51=FACE_BOUND('',#116,.T.);
#52=FACE_BOUND('',#118,.T.);
#53=FACE_BOUND('',#119,.T.);
#54=FACE_BOUND('',#120,.T.);
#55=FACE_BOUND('',#122,.T.);
#56=FACE_BOUND('',#124,.T.);
#57=FACE_BOUND('',#125,.T.);
#58=FACE_BOUND('',#126,.T.);
#59=FACE_BOUND('',#128,.T.);
#60=FACE_BOUND('',#130,.T.);
#61=FACE_BOUND('',#132,.T.);
#62=FACE_BOUND('',#134,.T.);
#63=FACE_BOUND('',#136,.T.);
#64=FACE_OUTER_BOUND('',#83,.T.);
#65=FACE_OUTER_BOUND('',#85,.T.);
#66=FACE_OUTER_BOUND('',#87,.T.);
#67=FACE_OUTER_BOUND('',#92,.T.);
#68=FACE_OUTER_BOUND('',#94,.T.);
#69=FACE_OUTER_BOUND('',#96,.T.);
#70=FACE_OUTER_BOUND('',#100,.T.);
#71=FACE_OUTER_BOUND('',#102,.T.);
#72=FACE_OUTER_BOUND('',#109,.T.);
#73=FACE_OUTER_BOUND('',#111,.T.);
#74=FACE_OUTER_BOUND('',#113,.T.);
#75=FACE_OUTER_BOUND('',#117,.T.);
#76=FACE_OUTER_BOUND('',#121,.T.);
#77=FACE_OUTER_BOUND('',#123,.T.);
#78=FACE_OUTER_BOUND('',#127,.T.);
#79=FACE_OUTER_BOUND('',#129,.T.);
#80=FACE_OUTER_BOUND('',#131,.T.);
#81=FACE_OUTER_BOUND('',#133,.T.);
#82=FACE_OUTER_BOUND('',#135,.T.);
#83=EDGE_LOOP('',(#218));
#84=EDGE_LOOP('',(#219));
#85=EDGE_LOOP('',(#220));
#86=EDGE_LOOP('',(#221));
#87=EDGE_LOOP('',(#222));
#88=EDGE_LOOP('',(#223));
#89=EDGE_LOOP('',(#224));
#90=EDGE_LOOP('',(#225));
#91=EDGE_LOOP('',(#226));
#92=EDGE_LOOP('',(#227));
#93=EDGE_LOOP('',(#228));
#94=EDGE_LOOP('',(#229));
#95=EDGE_LOOP('',(#230));
#96=EDGE_LOOP('',(#231));
#97=EDGE_LOOP('',(#232));
#98=EDGE_LOOP('',(#233));
#99=EDGE_LOOP('',(#234));
#100=EDGE_LOOP('',(#235));
#101=EDGE_LOOP('',(#236));
#102=EDGE_LOOP('',(#237));
#103=EDGE_LOOP('',(#238));
#104=EDGE_LOOP('',(#239));
#105=EDGE_LOOP('',(#240));
#106=EDGE_LOOP('',(#241));
#107=EDGE_LOOP('',(#242));
#108=EDGE_LOOP('',(#243));
#109=EDGE_LOOP('',(#244));
#110=EDGE_LOOP('',(#245));
#111=EDGE_LOOP('',(#246));
#112=EDGE_LOOP('',(#247));
#113=EDGE_LOOP('',(#248));
#114=EDGE_LOOP('',(#249));
#115=EDGE_LOOP('',(#250));
#116=EDGE_LOOP('',(#251));
#117=EDGE_LOOP('',(#252));
#118=EDGE_LOOP('',(#253));
#119=EDGE_LOOP('',(#254));
#120=EDGE_LOOP('',(#255));
#121=EDGE_LOOP('',(#256));
#122=EDGE_LOOP('',(#257));
#123=EDGE_LOOP('',(#258));
#124=EDGE_LOOP('',(#259));
#125=EDGE_LOOP('',(#260));
#126=EDGE_LOOP('',(#261));
#127=EDGE_LOOP('',(#262));
#128=EDGE_LOOP('',(#263));
#129=EDGE_LOOP('',(#264));
#130=EDGE_LOOP('',(#265));
#131=EDGE_LOOP('',(#266));
#132=EDGE_LOOP('',(#267));
#133=EDGE_LOOP('',(#268));
#134=EDGE_LOOP('',(#269));
#135=EDGE_LOOP('',(#270));
#136=EDGE_LOOP('',(#271));
#137=CIRCLE('',#309,4.4585);
#138=CIRCLE('',#310,4.4585);
#139=CIRCLE('',#312,10.);
#140=CIRCLE('',#313,10.4);
#141=CIRCLE('',#315,33.5);
#142=CIRCLE('',#316,2.4585);
#143=CIRCLE('',#317,2.4585);
#144=CIRCLE('',#318,2.4585);
#145=CIRCLE('',#320,10.);
#146=CIRCLE('',#322,14.);
#147=CIRCLE('',#323,13.5);
#148=CIRCLE('',#325,14.);
#149=CIRCLE('',#328,34.);
#150=CIRCLE('',#329,33.5);
#151=CIRCLE('',#331,34.);
#152=CIRCLE('',#333,2.4585);
#153=CIRCLE('',#334,2.4585);
#154=CIRCLE('',#335,2.4585);
#155=CIRCLE('',#338,7.);
#156=CIRCLE('',#339,6.5);
#157=CIRCLE('',#341,7.);
#158=CIRCLE('',#344,7.04996171205752);
#159=CIRCLE('',#345,7.35745363159013);
#160=CIRCLE('',#348,9.01490428014379);
#161=CIRCLE('',#350,10.);
#162=CIRCLE('',#351,11.);
#163=CIRCLE('',#354,11.);
#164=VERTEX_POINT('',#465);
#165=VERTEX_POINT('',#467);
#166=VERTEX_POINT('',#470);
#167=VERTEX_POINT('',#472);
#168=VERTEX_POINT('',#475);
#169=VERTEX_POINT('',#477);
#170=VERTEX_POINT('',#479);
#171=VERTEX_POINT('',#481);
#172=VERTEX_POINT('',#484);
#173=VERTEX_POINT('',#487);
#174=VERTEX_POINT('',#489);
#175=VERTEX_POINT('',#492);
#176=VERTEX_POINT('',#496);
#177=VERTEX_POINT('',#498);
#178=VERTEX_POINT('',#501);
#179=VERTEX_POINT('',#504);
#180=VERTEX_POINT('',#506);
#181=VERTEX_POINT('',#508);
#182=VERTEX_POINT('',#512);
#183=VERTEX_POINT('',#514);
#184=VERTEX_POINT('',#517);
#185=VERTEX_POINT('',#521);
#186=VERTEX_POINT('',#523);
#187=VERTEX_POINT('',#527);
#188=VERTEX_POINT('',#530);
#189=VERTEX_POINT('',#532);
#190=VERTEX_POINT('',#536);
#191=EDGE_CURVE('',#164,#164,#137,.T.);
#192=EDGE_CURVE('',#165,#165,#138,.T.);
#193=EDGE_CURVE('',#166,#166,#139,.T.);
#194=EDGE_CURVE('',#167,#167,#140,.T.);
#195=EDGE_CURVE('',#168,#168,#141,.T.);
#196=EDGE_CURVE('',#169,#169,#142,.T.);
#197=EDGE_CURVE('',#170,#170,#143,.T.);
#198=EDGE_CURVE('',#171,#171,#144,.T.);
#199=EDGE_CURVE('',#172,#172,#145,.T.);
#200=EDGE_CURVE('',#173,#173,#146,.T.);
#201=EDGE_CURVE('',#174,#174,#147,.T.);
#202=EDGE_CURVE('',#175,#175,#148,.T.);
#203=EDGE_CURVE('',#176,#176,#149,.T.);
#204=EDGE_CURVE('',#177,#177,#150,.T.);
#205=EDGE_CURVE('',#178,#178,#151,.T.);
#206=EDGE_CURVE('',#179,#179,#152,.T.);
#207=EDGE_CURVE('',#180,#180,#153,.T.);
#208=EDGE_CURVE('',#181,#181,#154,.T.);
#209=EDGE_CURVE('',#182,#182,#155,.T.);
#210=EDGE_CURVE('',#183,#183,#156,.T.);
#211=EDGE_CURVE('',#184,#184,#157,.T.);
#212=EDGE_CURVE('',#185,#185,#158,.T.);
#213=EDGE_CURVE('',#186,#186,#159,.T.);
#214=EDGE_CURVE('',#187,#187,#160,.T.);
#215=EDGE_CURVE('',#188,#188,#161,.T.);
#216=EDGE_CURVE('',#189,#189,#162,.T.);
#217=EDGE_CURVE('',#190,#190,#163,.T.);
#218=ORIENTED_EDGE('',*,*,#191,.F.);
#219=ORIENTED_EDGE('',*,*,#192,.F.);
#220=ORIENTED_EDGE('',*,*,#193,.T.);
#221=ORIENTED_EDGE('',*,*,#194,.T.);
#222=ORIENTED_EDGE('',*,*,#195,.F.);
#223=ORIENTED_EDGE('',*,*,#196,.T.);
#224=ORIENTED_EDGE('',*,*,#197,.T.);
#225=ORIENTED_EDGE('',*,*,#198,.T.);
#226=ORIENTED_EDGE('',*,*,#194,.F.);
#227=ORIENTED_EDGE('',*,*,#199,.T.);
#228=ORIENTED_EDGE('',*,*,#193,.F.);
#229=ORIENTED_EDGE('',*,*,#200,.T.);
#230=ORIENTED_EDGE('',*,*,#201,.T.);
#231=ORIENTED_EDGE('',*,*,#202,.T.);
#232=ORIENTED_EDGE('',*,*,#200,.F.);
#233=ORIENTED_EDGE('',*,*,#191,.T.);
#234=ORIENTED_EDGE('',*,*,#201,.F.);
#235=ORIENTED_EDGE('',*,*,#203,.T.);
#236=ORIENTED_EDGE('',*,*,#204,.T.);
#237=ORIENTED_EDGE('',*,*,#205,.F.);
#238=ORIENTED_EDGE('',*,*,#203,.F.);
#239=ORIENTED_EDGE('',*,*,#202,.F.);
#240=ORIENTED_EDGE('',*,*,#206,.T.);
#241=ORIENTED_EDGE('',*,*,#207,.T.);
#242=ORIENTED_EDGE('',*,*,#208,.T.);
#243=ORIENTED_EDGE('',*,*,#204,.F.);
#244=ORIENTED_EDGE('',*,*,#195,.T.);
#245=ORIENTED_EDGE('',*,*,#205,.T.);
#246=ORIENTED_EDGE('',*,*,#209,.T.);
#247=ORIENTED_EDGE('',*,*,#210,.T.);
#248=ORIENTED_EDGE('',*,*,#211,.T.);
#249=ORIENTED_EDGE('',*,*,#209,.F.);
#250=ORIENTED_EDGE('',*,*,#192,.T.);
#251=ORIENTED_EDGE('',*,*,#210,.F.);
#252=ORIENTED_EDGE('',*,*,#212,.T.);
#253=ORIENTED_EDGE('',*,*,#213,.T.);
#254=ORIENTED_EDGE('',*,*,#211,.F.);
#255=ORIENTED_EDGE('',*,*,#212,.F.);
#256=ORIENTED_EDGE('',*,*,#214,.F.);
#257=ORIENTED_EDGE('',*,*,#213,.F.);
#258=ORIENTED_EDGE('',*,*,#215,.T.);
#259=ORIENTED_EDGE('',*,*,#216,.T.);
#260=ORIENTED_EDGE('',*,*,#214,.T.);
#261=ORIENTED_EDGE('',*,*,#215,.F.);
#262=ORIENTED_EDGE('',*,*,#217,.F.);
#263=ORIENTED_EDGE('',*,*,#216,.F.);
#264=ORIENTED_EDGE('',*,*,#196,.F.);
#265=ORIENTED_EDGE('',*,*,#208,.F.);
#266=ORIENTED_EDGE('',*,*,#197,.F.);
#267=ORIENTED_EDGE('',*,*,#207,.F.);
#268=ORIENTED_EDGE('',*,*,#198,.F.);
#269=ORIENTED_EDGE('',*,*,#206,.F.);
#270=ORIENTED_EDGE('',*,*,#199,.F.);
#271=ORIENTED_EDGE('',*,*,#217,.T.);
#272=CYLINDRICAL_SURFACE('',#308,4.4585);
#273=CYLINDRICAL_SURFACE('',#319,10.);
#274=CYLINDRICAL_SURFACE('',#324,14.);
#275=CYLINDRICAL_SURFACE('',#330,34.);
#276=CYLINDRICAL_SURFACE('',#340,7.);
#277=CYLINDRICAL_SURFACE('',#353,11.);
#278=CYLINDRICAL_SURFACE('',#355,2.4585);
#279=CYLINDRICAL_SURFACE('',#356,2.4585);
#280=CYLINDRICAL_SURFACE('',#357,2.4585);
#281=ADVANCED_FACE('',(#64,#29),#272,.F.);
#282=ADVANCED_FACE('',(#65,#30),#28,.F.);
#283=ADVANCED_FACE('',(#66,#31,#32,#33,#34),#22,.T.);
#284=ADVANCED_FACE('',(#67,#35),#273,.T.);
#285=ADVANCED_FACE('',(#68,#36),#14,.T.);
#286=ADVANCED_FACE('',(#69,#37),#274,.T.);
#287=ADVANCED_FACE('',(#38,#39),#23,.T.);
#288=ADVANCED_FACE('',(#70,#40),#15,.T.);
#289=ADVANCED_FACE('',(#71,#41),#275,.T.);
#290=ADVANCED_FACE('',(#42,#43,#44,#45,#46),#24,.T.);
#291=ADVANCED_FACE('',(#72,#47),#16,.T.);
#292=ADVANCED_FACE('',(#73,#48),#17,.T.);
#293=ADVANCED_FACE('',(#74,#49),#276,.T.);
#294=ADVANCED_FACE('',(#50,#51),#25,.T.);
#295=ADVANCED_FACE('',(#75,#52),#18,.T.);
#296=ADVANCED_FACE('',(#53,#54),#26,.F.);
#297=ADVANCED_FACE('',(#76,#55),#19,.T.);
#298=ADVANCED_FACE('',(#77,#56),#20,.T.);
#299=ADVANCED_FACE('',(#57,#58),#27,.T.);
#300=ADVANCED_FACE('',(#78,#59),#277,.T.);
#301=ADVANCED_FACE('',(#79,#60),#278,.F.);
#302=ADVANCED_FACE('',(#80,#61),#279,.F.);
#303=ADVANCED_FACE('',(#81,#62),#280,.F.);
#304=ADVANCED_FACE('',(#82,#63),#21,.T.);
#305=CLOSED_SHELL('',(#281,#282,#283,#284,#285,#286,#287,#288,#289,#290,
#291,#292,#293,#294,#295,#296,#297,#298,#299,#300,#301,#302,#303,#304));
#306=MANIFOLD_SOLID_BREP('Volumenk\X\F6rper1',#305);
#307=AXIS2_PLACEMENT_3D('placement',#463,#359,#360);
#308=AXIS2_PLACEMENT_3D('',#464,#361,#362);
#309=AXIS2_PLACEMENT_3D('',#466,#363,#364);
#310=AXIS2_PLACEMENT_3D('',#468,#365,#366);
#311=AXIS2_PLACEMENT_3D('',#469,#367,#368);
#312=AXIS2_PLACEMENT_3D('',#471,#369,#370);
#313=AXIS2_PLACEMENT_3D('',#473,#371,#372);
#314=AXIS2_PLACEMENT_3D('',#474,#373,#374);
#315=AXIS2_PLACEMENT_3D('',#476,#375,#376);
#316=AXIS2_PLACEMENT_3D('',#478,#377,#378);
#317=AXIS2_PLACEMENT_3D('',#480,#379,#380);
#318=AXIS2_PLACEMENT_3D('',#482,#381,#382);
#319=AXIS2_PLACEMENT_3D('',#483,#383,#384);
#320=AXIS2_PLACEMENT_3D('',#485,#385,#386);
#321=AXIS2_PLACEMENT_3D('',#486,#387,#388);
#322=AXIS2_PLACEMENT_3D('',#488,#389,#390);
#323=AXIS2_PLACEMENT_3D('',#490,#391,#392);
#324=AXIS2_PLACEMENT_3D('',#491,#393,#394);
#325=AXIS2_PLACEMENT_3D('',#493,#395,#396);
#326=AXIS2_PLACEMENT_3D('',#494,#397,#398);
#327=AXIS2_PLACEMENT_3D('',#495,#399,#400);
#328=AXIS2_PLACEMENT_3D('',#497,#401,#402);
#329=AXIS2_PLACEMENT_3D('',#499,#403,#404);
#330=AXIS2_PLACEMENT_3D('',#500,#405,#406);
#331=AXIS2_PLACEMENT_3D('',#502,#407,#408);
#332=AXIS2_PLACEMENT_3D('',#503,#409,#410);
#333=AXIS2_PLACEMENT_3D('',#505,#411,#412);
#334=AXIS2_PLACEMENT_3D('',#507,#413,#414);
#335=AXIS2_PLACEMENT_3D('',#509,#415,#416);
#336=AXIS2_PLACEMENT_3D('',#510,#417,#418);
#337=AXIS2_PLACEMENT_3D('',#511,#419,#420);
#338=AXIS2_PLACEMENT_3D('',#513,#421,#422);
#339=AXIS2_PLACEMENT_3D('',#515,#423,#424);
#340=AXIS2_PLACEMENT_3D('',#516,#425,#426);
#341=AXIS2_PLACEMENT_3D('',#518,#427,#428);
#342=AXIS2_PLACEMENT_3D('',#519,#429,#430);
#343=AXIS2_PLACEMENT_3D('',#520,#431,#432);
#344=AXIS2_PLACEMENT_3D('',#522,#433,#434);
#345=AXIS2_PLACEMENT_3D('',#524,#435,#436);
#346=AXIS2_PLACEMENT_3D('',#525,#437,#438);
#347=AXIS2_PLACEMENT_3D('',#526,#439,#440);
#348=AXIS2_PLACEMENT_3D('',#528,#441,#442);
#349=AXIS2_PLACEMENT_3D('',#529,#443,#444);
#350=AXIS2_PLACEMENT_3D('',#531,#445,#446);
#351=AXIS2_PLACEMENT_3D('',#533,#447,#448);
#352=AXIS2_PLACEMENT_3D('',#534,#449,#450);
#353=AXIS2_PLACEMENT_3D('',#535,#451,#452);
#354=AXIS2_PLACEMENT_3D('',#537,#453,#454);
#355=AXIS2_PLACEMENT_3D('',#538,#455,#456);
#356=AXIS2_PLACEMENT_3D('',#539,#457,#458);
#357=AXIS2_PLACEMENT_3D('',#540,#459,#460);
#358=AXIS2_PLACEMENT_3D('',#541,#461,#462);
#359=DIRECTION('axis',(0.,0.,1.));
#360=DIRECTION('refdir',(1.,0.,0.));
#361=DIRECTION('center_axis',(-1.,-1.24504948483844E-016,0.));
#362=DIRECTION('ref_axis',(0.,0.,1.));
#363=DIRECTION('center_axis',(-1.,-1.24504948483844E-016,0.));
#364=DIRECTION('ref_axis',(0.,0.,1.));
#365=DIRECTION('center_axis',(1.,1.24504948483844E-016,0.));
#366=DIRECTION('ref_axis',(0.,0.,1.));
#367=DIRECTION('center_axis',(1.,1.24504948483844E-016,0.));
#368=DIRECTION('ref_axis',(0.,0.,-1.));
#369=DIRECTION('center_axis',(1.,1.24504948483844E-016,0.));
#370=DIRECTION('ref_axis',(1.2490009027033E-016,-1.,1.22464679914735E-016));
#371=DIRECTION('center_axis',(-1.,-1.24504948483844E-016,0.));
#372=DIRECTION('ref_axis',(1.24504948483844E-016,-1.,1.22464679914735E-016));
#373=DIRECTION('center_axis',(-1.,-1.24504948483844E-016,0.));
#374=DIRECTION('ref_axis',(0.,0.,1.));
#375=DIRECTION('center_axis',(1.,1.24504948483844E-016,0.));
#376=DIRECTION('ref_axis',(1.24504948483844E-016,-1.,0.));
#377=DIRECTION('center_axis',(1.,1.24504948483844E-016,0.));
#378=DIRECTION('ref_axis',(0.,-0.866025403784438,0.5));
#379=DIRECTION('center_axis',(1.,1.24504948483844E-016,0.));
#380=DIRECTION('ref_axis',(0.,0.866025403784439,0.5));
#381=DIRECTION('center_axis',(1.,1.24504948483844E-016,0.));
#382=DIRECTION('ref_axis',(0.,0.,-1.));
#383=DIRECTION('center_axis',(1.,1.24504948483844E-016,0.));
#384=DIRECTION('ref_axis',(0.,1.,0.));
#385=DIRECTION('center_axis',(1.,1.24504948483844E-016,0.));
#386=DIRECTION('ref_axis',(0.,1.,0.));
#387=DIRECTION('center_axis',(-1.,-1.24504948483845E-016,0.));
#388=DIRECTION('ref_axis',(6.11206110738869E-017,-1.,0.));
#389=DIRECTION('center_axis',(1.,1.24504948483844E-016,0.));
#390=DIRECTION('ref_axis',(0.,-1.,0.));
#391=DIRECTION('center_axis',(-1.,-1.24504948483844E-016,0.));
#392=DIRECTION('ref_axis',(1.24504948483844E-016,-1.,0.));
#393=DIRECTION('center_axis',(1.,1.24504948483844E-016,0.));
#394=DIRECTION('ref_axis',(0.,1.,0.));
#395=DIRECTION('center_axis',(1.,1.24504948483844E-016,0.));
#396=DIRECTION('ref_axis',(0.,1.,0.));
#397=DIRECTION('center_axis',(1.,1.24504948483844E-016,0.));
#398=DIRECTION('ref_axis',(0.,0.,-1.));
#399=DIRECTION('center_axis',(-1.,-1.24504948483844E-016,0.));
#400=DIRECTION('ref_axis',(6.17913448030928E-017,-1.,0.));
#401=DIRECTION('center_axis',(1.,1.24504948483844E-016,0.));
#402=DIRECTION('ref_axis',(0.,-1.,0.));
#403=DIRECTION('center_axis',(-1.,-1.24504948483844E-016,0.));
#404=DIRECTION('ref_axis',(1.24504948483844E-016,-1.,0.));
#405=DIRECTION('center_axis',(1.,1.24504948483844E-016,0.));
#406=DIRECTION('ref_axis',(0.,1.,0.));
#407=DIRECTION('center_axis',(-1.,-1.24504948483844E-016,0.));
#408=DIRECTION('ref_axis',(0.,-1.,0.));
#409=DIRECTION('center_axis',(1.,1.24504948483844E-016,0.));
#410=DIRECTION('ref_axis',(0.,0.,-1.));
#411=DIRECTION('center_axis',(-1.,-1.24504948483844E-016,0.));
#412=DIRECTION('ref_axis',(0.,0.,-1.));
#413=DIRECTION('center_axis',(-1.,-1.24504948483844E-016,0.));
#414=DIRECTION('ref_axis',(0.,0.866025403784439,0.5));
#415=DIRECTION('center_axis',(-1.,-1.24504948483844E-016,0.));
#416=DIRECTION('ref_axis',(0.,-0.866025403784438,0.5));
#417=DIRECTION('center_axis',(1.,1.24504948483844E-016,0.));
#418=DIRECTION('ref_axis',(6.17913448030928E-017,-1.,0.));
#419=DIRECTION('center_axis',(1.,1.24504948483844E-016,0.));
#420=DIRECTION('ref_axis',(0.,0.,-1.));
#421=DIRECTION('center_axis',(-1.,-1.24504948483844E-016,0.));
#422=DIRECTION('ref_axis',(0.,0.,-1.));
#423=DIRECTION('center_axis',(1.,1.24504948483844E-016,0.));
#424=DIRECTION('ref_axis',(0.,0.,-1.));
#425=DIRECTION('center_axis',(1.,1.24504948483843E-016,0.));
#426=DIRECTION('ref_axis',(0.,0.,-1.));
#427=DIRECTION('center_axis',(-1.,-1.24504948483844E-016,0.));
#428=DIRECTION('ref_axis',(0.,0.,-1.));
#429=DIRECTION('center_axis',(-1.,-1.24504948483844E-016,0.));
#430=DIRECTION('ref_axis',(0.,0.,1.));
#431=DIRECTION('center_axis',(1.,-8.30291937708185E-016,-1.5021821673006E-015));
#432=DIRECTION('ref_axis',(-6.09238436483197E-017,1.,3.12695991088181E-017));
#433=DIRECTION('center_axis',(1.,1.24504948483844E-016,0.));
#434=DIRECTION('ref_axis',(-1.24504948483844E-016,1.,0.));
#435=DIRECTION('center_axis',(-1.,0.,0.));
#436=DIRECTION('ref_axis',(0.,1.,6.12323399573677E-017));
#437=DIRECTION('center_axis',(1.,1.24504948483844E-016,0.));
#438=DIRECTION('ref_axis',(0.,0.,-1.));
#439=DIRECTION('center_axis',(1.,1.24504948483844E-016,0.));
#440=DIRECTION('ref_axis',(0.,1.,0.));
#441=DIRECTION('center_axis',(1.,1.24504948483844E-016,0.));
#442=DIRECTION('ref_axis',(0.,1.,0.));
#443=DIRECTION('center_axis',(1.,1.24504948483843E-016,0.));
#444=DIRECTION('ref_axis',(5.92880707065922E-017,-1.,0.));
#445=DIRECTION('center_axis',(1.,1.24504948483844E-016,0.));
#446=DIRECTION('ref_axis',(1.24504948483844E-016,-1.,0.));
#447=DIRECTION('center_axis',(-1.,-1.24504948483844E-016,0.));
#448=DIRECTION('ref_axis',(0.,-1.,0.));
#449=DIRECTION('center_axis',(-1.,-1.24504948483844E-016,0.));
#450=DIRECTION('ref_axis',(0.,0.,1.));
#451=DIRECTION('center_axis',(1.,1.24504948483844E-016,0.));
#452=DIRECTION('ref_axis',(0.,1.,0.));
#453=DIRECTION('center_axis',(1.,1.24504948483844E-016,0.));
#454=DIRECTION('ref_axis',(0.,1.,0.));
#455=DIRECTION('center_axis',(1.,-6.22524742419219E-017,-1.07824448283881E-016));
#456=DIRECTION('ref_axis',(0.,-0.866025403784438,0.5));
#457=DIRECTION('center_axis',(1.,-6.22524742419218E-017,1.07824448283881E-016));
#458=DIRECTION('ref_axis',(0.,0.866025403784439,0.5));
#459=DIRECTION('center_axis',(1.,1.24504948483844E-016,0.));
#460=DIRECTION('ref_axis',(0.,0.,-1.));
#461=DIRECTION('center_axis',(-1.,-1.24504948483844E-016,0.));
#462=DIRECTION('ref_axis',(0.,1.,0.));
#463=CARTESIAN_POINT('',(0.,0.,0.));
#464=CARTESIAN_POINT('Origin',(83.6112374293473,1.29575269007307E-014,0.));
#465=CARTESIAN_POINT('',(43.4777437219987,7.41469955882073E-015,-4.4585));
#466=CARTESIAN_POINT('Origin',(43.4777437219987,7.96070833422058E-015,0.));
#467=CARTESIAN_POINT('',(-51.6709958636081,-3.88578058618805E-015,4.4585));
#468=CARTESIAN_POINT('Origin',(-51.6709958636081,-3.88578058618805E-015,
0.));
#469=CARTESIAN_POINT('Origin',(27.0777437219987,5.91882717908555E-015,0.));
#470=CARTESIAN_POINT('',(27.0777437219987,10.,0.));
#471=CARTESIAN_POINT('Origin',(27.0777437219987,5.91882717908555E-015,0.));
#472=CARTESIAN_POINT('',(27.4777437219987,10.4,-2.54726534222649E-015));
#473=CARTESIAN_POINT('Origin',(27.4777437219987,5.96862915847909E-015,0.));
#474=CARTESIAN_POINT('Origin',(27.4777437219987,22.,0.));
#475=CARTESIAN_POINT('',(27.4777437219987,33.5,4.10256677714363E-015));
#476=CARTESIAN_POINT('Origin',(27.4777437219987,5.96862915847909E-015,0.));
#477=CARTESIAN_POINT('',(27.4777437219987,11.1291234552041,14.3592072681199));
#478=CARTESIAN_POINT('Origin',(27.4777437219987,9.00000000000002,15.5884572681199));
#479=CARTESIAN_POINT('',(27.4777437219987,6.87087654479596,-16.8177072681199));
#480=CARTESIAN_POINT('Origin',(27.4777437219987,9.00000000000001,-15.5884572681199));
#481=CARTESIAN_POINT('',(27.4777437219987,-18.,2.4585));
#482=CARTESIAN_POINT('Origin',(27.4777437219987,-18.,0.));
#483=CARTESIAN_POINT('Origin',(26.8777437219987,5.89392618938878E-015,0.));
#484=CARTESIAN_POINT('',(26.2777437219987,10.,0.));
#485=CARTESIAN_POINT('Origin',(26.2777437219987,5.81922322029847E-015,0.));
#486=CARTESIAN_POINT('Origin',(43.2277437219987,7.92958209709962E-015,0.));
#487=CARTESIAN_POINT('',(42.9777437219987,14.,1.71450551880629E-015));
#488=CARTESIAN_POINT('Origin',(42.9777437219987,7.89845585997866E-015,0.));
#489=CARTESIAN_POINT('',(43.4777437219987,13.5,-1.65327317884893E-015));
#490=CARTESIAN_POINT('Origin',(43.4777437219987,7.96070833422058E-015,0.));
#491=CARTESIAN_POINT('Origin',(41.9777437219987,7.77395091149482E-015,0.));
#492=CARTESIAN_POINT('',(40.4777437219987,14.,0.));
#493=CARTESIAN_POINT('Origin',(40.4777437219987,7.58719348876905E-015,0.));
#494=CARTESIAN_POINT('Origin',(43.4777437219987,7.00000000000001,0.));
#495=CARTESIAN_POINT('Origin',(40.2277437219987,7.55606725164809E-015,0.));
#496=CARTESIAN_POINT('',(39.9777437219987,34.,4.163799117101E-015));
#497=CARTESIAN_POINT('Origin',(39.9777437219987,7.52494101452713E-015,0.));
#498=CARTESIAN_POINT('',(40.4777437219987,33.5,-4.10256677714363E-015));
#499=CARTESIAN_POINT('Origin',(40.4777437219987,7.58719348876905E-015,0.));
#500=CARTESIAN_POINT('Origin',(33.9777437219987,6.77791132362407E-015,0.));
#501=CARTESIAN_POINT('',(27.9777437219987,34.,-4.163799117101E-015));
#502=CARTESIAN_POINT('Origin',(27.9777437219987,6.03088163272101E-015,0.));
#503=CARTESIAN_POINT('Origin',(40.4777437219987,24.,0.));
#504=CARTESIAN_POINT('',(40.4777437219987,-18.,-2.4585));
#505=CARTESIAN_POINT('Origin',(40.4777437219987,-18.,0.));
#506=CARTESIAN_POINT('',(40.4777437219987,11.129123455204,-14.3592072681199));
#507=CARTESIAN_POINT('Origin',(40.4777437219987,9.00000000000001,-15.5884572681199));
#508=CARTESIAN_POINT('',(40.4777437219987,6.87087654479598,16.8177072681199));
#509=CARTESIAN_POINT('Origin',(40.4777437219987,9.00000000000002,15.5884572681199));
#510=CARTESIAN_POINT('Origin',(27.7277437219987,5.99975539560005E-015,0.));
#511=CARTESIAN_POINT('Origin',(-51.4209958636081,-3.85465434906708E-015,
0.));
#512=CARTESIAN_POINT('',(-51.1709958636081,-2.96627535254298E-015,7.));
#513=CARTESIAN_POINT('Origin',(-51.1709958636081,-3.82352811194612E-015,
0.));
#514=CARTESIAN_POINT('',(-51.6709958636081,-4.68180100563383E-015,6.5));
#515=CARTESIAN_POINT('Origin',(-51.6709958636081,-3.88578058618805E-015,
0.));
#516=CARTESIAN_POINT('Origin',(-51.6709958636081,-3.88578058618805E-015,
0.));
#517=CARTESIAN_POINT('',(-49.6709958636081,-2.77951792981721E-015,7.));
#518=CARTESIAN_POINT('Origin',(-49.6709958636081,-3.63677068922036E-015,
0.));
#519=CARTESIAN_POINT('Origin',(-51.6709958636081,3.65,0.));
#520=CARTESIAN_POINT('Origin',(-49.5210426449517,-3.7612756377042E-015,
-2.25257050995048E-016));
#521=CARTESIAN_POINT('',(-49.6709958636081,-7.04996171205753,-8.63371304478264E-016));
#522=CARTESIAN_POINT('Origin',(-49.6709958636081,-3.63677068922036E-015,
0.));
#523=CARTESIAN_POINT('',(-49.3710894262952,-7.35745363159014,0.));
#524=CARTESIAN_POINT('Origin',(-49.3710894262952,-3.88578058618805E-015,
-4.50514101990096E-016));
#525=CARTESIAN_POINT('Origin',(-49.6709958636081,-3.63677068922036E-015,
0.));
#526=CARTESIAN_POINT('Origin',(-17.3466260708047,3.8777330660534E-016,0.));
#527=CARTESIAN_POINT('',(16.9777437219987,9.0149042801438,0.));
#528=CARTESIAN_POINT('Origin',(16.9777437219987,4.66132719939873E-015,0.));
#529=CARTESIAN_POINT('Origin',(17.4777437219987,4.72357967364065E-015,0.));
#530=CARTESIAN_POINT('',(16.9777437219987,10.,1.22464679914735E-015));
#531=CARTESIAN_POINT('Origin',(16.9777437219987,4.66132719939873E-015,0.));
#532=CARTESIAN_POINT('',(17.9777437219987,11.,-1.34711147906209E-015));
#533=CARTESIAN_POINT('Origin',(17.9777437219987,4.78583214788257E-015,0.));
#534=CARTESIAN_POINT('Origin',(16.9777437219987,10.0074521400719,0.));
#535=CARTESIAN_POINT('Origin',(21.1277437219987,5.17802273560668E-015,0.));
#536=CARTESIAN_POINT('',(25.2777437219987,11.,0.));
#537=CARTESIAN_POINT('Origin',(25.2777437219987,5.69471827181463E-015,0.));
#538=CARTESIAN_POINT('Origin',(-94.8044895709567,9.00000000000002,15.5884572681199));
#539=CARTESIAN_POINT('Origin',(-94.8044895709567,9.00000000000001,-15.5884572681199));
#540=CARTESIAN_POINT('Origin',(-94.8044895709567,-18.,0.));
#541=CARTESIAN_POINT('Origin',(25.7777437219987,5.75697074605655E-015,0.));
#542=UNCERTAINTY_MEASURE_WITH_UNIT(LENGTH_MEASURE(0.01),#546,
'DISTANCE_ACCURACY_VALUE',
'Maximum model space distance between geometric entities at asserted c
onnectivities');
#543=UNCERTAINTY_MEASURE_WITH_UNIT(LENGTH_MEASURE(1.E-006),#546,
'DISTANCE_ACCURACY_VALUE',
'Maximum model space distance between geometric entities at asserted c
onnectivities');
#544=(
GEOMETRIC_REPRESENTATION_CONTEXT(3)
GLOBAL_UNCERTAINTY_ASSIGNED_CONTEXT((#542))
GLOBAL_UNIT_ASSIGNED_CONTEXT((#546,#549,#547))
REPRESENTATION_CONTEXT('','3D')
);
#545=(
GEOMETRIC_REPRESENTATION_CONTEXT(3)
GLOBAL_UNCERTAINTY_ASSIGNED_CONTEXT((#543))
GLOBAL_UNIT_ASSIGNED_CONTEXT((#546,#549,#547))
REPRESENTATION_CONTEXT('','3D')
);
#546=(
LENGTH_UNIT()
NAMED_UNIT(*)
SI_UNIT(.MILLI.,.METRE.)
);
#547=(
NAMED_UNIT(*)
SI_UNIT($,.STERADIAN.)
SOLID_ANGLE_UNIT()
);
#548=DIMENSIONAL_EXPONENTS(0.,0.,0.,0.,0.,0.,0.);
#549=(
CONVERSION_BASED_UNIT('degree',#551)
NAMED_UNIT(#548)
PLANE_ANGLE_UNIT()
);
#550=(
NAMED_UNIT(*)
PLANE_ANGLE_UNIT()
SI_UNIT($,.RADIAN.)
);
#551=PLANE_ANGLE_MEASURE_WITH_UNIT(PLANE_ANGLE_MEASURE(0.01745329252),#550);
#552=SHAPE_DEFINITION_REPRESENTATION(#553,#554);
#553=PRODUCT_DEFINITION_SHAPE('',$,#556);
#554=SHAPE_REPRESENTATION('',(#307),#544);
#555=DESIGN_CONTEXT('part definition',#560,'design');
#556=PRODUCT_DEFINITION('DBF160_99-01b Aufnahme MK2 VICI VISION',
'DBF160_99-01b Aufnahme MK2 VICI VISION',#557,#555);
#557=PRODUCT_DEFINITION_FORMATION('',$,#562);
#558=PRODUCT_RELATED_PRODUCT_CATEGORY(
'DBF160_99-01b Aufnahme MK2 VICI VISION',
'DBF160_99-01b Aufnahme MK2 VICI VISION',(#562));
#559=APPLICATION_PROTOCOL_DEFINITION('international standard',
'ap203_configuration_controlled_3d_design_of_mechanical_parts_and_asse
mblies_mim_lf',2004,#560);
#560=APPLICATION_CONTEXT(
'Configuration Controlled 3D Design of Mechanical Parts and Assemblies');
#561=MECHANICAL_CONTEXT('part definition',#560,'mechanical');
#562=PRODUCT('DBF160_99-01b Aufnahme MK2 VICI VISION',
'DBF160_99-01b Aufnahme MK2 VICI VISION',$,(#561));
#563=PRESENTATION_STYLE_ASSIGNMENT((#564));
#564=SURFACE_STYLE_USAGE(.BOTH.,#565);
#565=SURFACE_SIDE_STYLE($,(#566));
#566=SURFACE_STYLE_FILL_AREA(#567);
#567=FILL_AREA_STYLE($,(#568));
#568=FILL_AREA_STYLE_COLOUR($,#569);
#569=COLOUR_RGB('',0.631372549019608,0.784313725490196,0.603921568627451);
ENDSEC;
END-ISO-10303-21;
