ISO-10303-21;
HEADER;
/* Generated by software containing ST-Developer
 * from STEP Tools, Inc. (www.steptools.com) 
 */

FILE_DESCRIPTION(
/* description */ ('Aufnahme MK2'),
/* implementation_level */ '2;1');

FILE_NAME(
/* name */ 
'Y:\\Futter\\Synchronisation Ordner\\(2) Dateien f\X\FCr Webseite\\Mor
se MK2\\DBF55_99-04 Aufnahme MK2.stp',
/* time_stamp */ '2022-01-29T18:53:00+01:00',
/* author */ ('MKoch'),
/* organization */ (''),
/* preprocessor_version */ 'ST-DEVELOPER v15.2',
/* originating_system */ 'Autodesk Inventor 2014',
/* authorisation */ '');

FILE_SCHEMA (('CONFIG_CONTROL_DESIGN'));
ENDSEC;

DATA;
#10=MECHANICAL_DESIGN_GEOMETRIC_PRESENTATION_REPRESENTATION('',(#13),#603);
#11=SHAPE_REPRESENTATION_RELATIONSHIP('SRR','None',#612,#12);
#12=ADVANCED_BREP_SHAPE_REPRESENTATION($,(#334),#602);
#13=STYLED_ITEM('',(#621),#334);
#14=PLANE('',#346);
#15=PLANE('',#355);
#16=PLANE('',#361);
#17=PLANE('',#371);
#18=PLANE('',#375);
#19=PLANE('',#381);
#20=TOROIDAL_SURFACE('',#343,10.4,0.4);
#21=CYLINDRICAL_SURFACE('',#339,5.6);
#22=CYLINDRICAL_SURFACE('',#341,4.4585);
#23=CYLINDRICAL_SURFACE('',#348,10.);
#24=CYLINDRICAL_SURFACE('',#353,7.);
#25=CYLINDRICAL_SURFACE('',#359,17.);
#26=CYLINDRICAL_SURFACE('',#369,7.);
#27=CYLINDRICAL_SURFACE('',#382,11.);
#28=CYLINDRICAL_SURFACE('',#386,1.2295);
#29=CYLINDRICAL_SURFACE('',#389,1.2295);
#30=CYLINDRICAL_SURFACE('',#392,1.2295);
#31=FACE_BOUND('',#90,.T.);
#32=FACE_BOUND('',#92,.T.);
#33=FACE_BOUND('',#94,.T.);
#34=FACE_BOUND('',#96,.T.);
#35=FACE_BOUND('',#98,.T.);
#36=FACE_BOUND('',#100,.T.);
#37=FACE_BOUND('',#102,.T.);
#38=FACE_BOUND('',#104,.T.);
#39=FACE_BOUND('',#105,.T.);
#40=FACE_BOUND('',#106,.T.);
#41=FACE_BOUND('',#108,.T.);
#42=FACE_BOUND('',#110,.T.);
#43=FACE_BOUND('',#111,.T.);
#44=FACE_BOUND('',#112,.T.);
#45=FACE_BOUND('',#113,.T.);
#46=FACE_BOUND('',#114,.T.);
#47=FACE_BOUND('',#115,.T.);
#48=FACE_BOUND('',#117,.T.);
#49=FACE_BOUND('',#119,.T.);
#50=FACE_BOUND('',#121,.T.);
#51=FACE_BOUND('',#122,.T.);
#52=FACE_BOUND('',#123,.T.);
#53=FACE_BOUND('',#125,.T.);
#54=FACE_BOUND('',#126,.T.);
#55=FACE_BOUND('',#127,.T.);
#56=FACE_BOUND('',#129,.T.);
#57=FACE_BOUND('',#131,.T.);
#58=FACE_BOUND('',#132,.T.);
#59=FACE_BOUND('',#133,.T.);
#60=FACE_BOUND('',#135,.T.);
#61=FACE_BOUND('',#138,.T.);
#62=FACE_BOUND('',#141,.T.);
#63=FACE_BOUND('',#144,.T.);
#64=FACE_BOUND('',#146,.T.);
#65=FACE_OUTER_BOUND('',#89,.T.);
#66=FACE_OUTER_BOUND('',#91,.T.);
#67=FACE_OUTER_BOUND('',#93,.T.);
#68=FACE_OUTER_BOUND('',#95,.T.);
#69=FACE_OUTER_BOUND('',#97,.T.);
#70=FACE_OUTER_BOUND('',#99,.T.);
#71=FACE_OUTER_BOUND('',#101,.T.);
#72=FACE_OUTER_BOUND('',#103,.T.);
#73=FACE_OUTER_BOUND('',#107,.T.);
#74=FACE_OUTER_BOUND('',#109,.T.);
#75=FACE_OUTER_BOUND('',#116,.T.);
#76=FACE_OUTER_BOUND('',#118,.T.);
#77=FACE_OUTER_BOUND('',#120,.T.);
#78=FACE_OUTER_BOUND('',#124,.T.);
#79=FACE_OUTER_BOUND('',#128,.T.);
#80=FACE_OUTER_BOUND('',#130,.T.);
#81=FACE_OUTER_BOUND('',#134,.T.);
#82=FACE_OUTER_BOUND('',#136,.T.);
#83=FACE_OUTER_BOUND('',#137,.T.);
#84=FACE_OUTER_BOUND('',#139,.T.);
#85=FACE_OUTER_BOUND('',#140,.T.);
#86=FACE_OUTER_BOUND('',#142,.T.);
#87=FACE_OUTER_BOUND('',#143,.T.);
#88=FACE_OUTER_BOUND('',#145,.T.);
#89=EDGE_LOOP('',(#234));
#90=EDGE_LOOP('',(#235));
#91=EDGE_LOOP('',(#236));
#92=EDGE_LOOP('',(#237));
#93=EDGE_LOOP('',(#238));
#94=EDGE_LOOP('',(#239));
#95=EDGE_LOOP('',(#240));
#96=EDGE_LOOP('',(#241));
#97=EDGE_LOOP('',(#242));
#98=EDGE_LOOP('',(#243));
#99=EDGE_LOOP('',(#244));
#100=EDGE_LOOP('',(#245));
#101=EDGE_LOOP('',(#246));
#102=EDGE_LOOP('',(#247));
#103=EDGE_LOOP('',(#248));
#104=EDGE_LOOP('',(#249));
#105=EDGE_LOOP('',(#250));
#106=EDGE_LOOP('',(#251));
#107=EDGE_LOOP('',(#252));
#108=EDGE_LOOP('',(#253));
#109=EDGE_LOOP('',(#254));
#110=EDGE_LOOP('',(#255));
#111=EDGE_LOOP('',(#256));
#112=EDGE_LOOP('',(#257));
#113=EDGE_LOOP('',(#258));
#114=EDGE_LOOP('',(#259));
#115=EDGE_LOOP('',(#260));
#116=EDGE_LOOP('',(#261));
#117=EDGE_LOOP('',(#262));
#118=EDGE_LOOP('',(#263));
#119=EDGE_LOOP('',(#264));
#120=EDGE_LOOP('',(#265));
#121=EDGE_LOOP('',(#266));
#122=EDGE_LOOP('',(#267));
#123=EDGE_LOOP('',(#268));
#124=EDGE_LOOP('',(#269));
#125=EDGE_LOOP('',(#270));
#126=EDGE_LOOP('',(#271));
#127=EDGE_LOOP('',(#272));
#128=EDGE_LOOP('',(#273));
#129=EDGE_LOOP('',(#274));
#130=EDGE_LOOP('',(#275));
#131=EDGE_LOOP('',(#276));
#132=EDGE_LOOP('',(#277));
#133=EDGE_LOOP('',(#278));
#134=EDGE_LOOP('',(#279));
#135=EDGE_LOOP('',(#280));
#136=EDGE_LOOP('',(#281));
#137=EDGE_LOOP('',(#282));
#138=EDGE_LOOP('',(#283));
#139=EDGE_LOOP('',(#284));
#140=EDGE_LOOP('',(#285));
#141=EDGE_LOOP('',(#286));
#142=EDGE_LOOP('',(#287));
#143=EDGE_LOOP('',(#288));
#144=EDGE_LOOP('',(#289));
#145=EDGE_LOOP('',(#290));
#146=EDGE_LOOP('',(#291));
#147=CIRCLE('',#337,4.4585);
#148=CIRCLE('',#338,5.6);
#149=CIRCLE('',#340,5.6);
#150=CIRCLE('',#342,4.4585);
#151=CIRCLE('',#344,10.);
#152=CIRCLE('',#345,10.4);
#153=CIRCLE('',#347,16.5);
#154=CIRCLE('',#349,10.);
#155=CIRCLE('',#351,7.);
#156=CIRCLE('',#352,6.5);
#157=CIRCLE('',#354,7.);
#158=CIRCLE('',#357,17.);
#159=CIRCLE('',#358,16.5);
#160=CIRCLE('',#360,17.);
#161=CIRCLE('',#362,1.2295);
#162=CIRCLE('',#363,1.2295);
#163=CIRCLE('',#364,1.2295);
#164=CIRCLE('',#367,7.);
#165=CIRCLE('',#368,6.5);
#166=CIRCLE('',#370,7.);
#167=CIRCLE('',#373,7.04996171205752);
#168=CIRCLE('',#374,7.35745363159013);
#169=CIRCLE('',#377,9.0149042801438);
#170=CIRCLE('',#379,10.);
#171=CIRCLE('',#380,11.);
#172=CIRCLE('',#383,11.);
#173=CIRCLE('',#385,1.2295);
#174=CIRCLE('',#388,1.2295);
#175=CIRCLE('',#391,1.2295);
#176=VERTEX_POINT('',#514);
#177=VERTEX_POINT('',#516);
#178=VERTEX_POINT('',#519);
#179=VERTEX_POINT('',#522);
#180=VERTEX_POINT('',#525);
#181=VERTEX_POINT('',#527);
#182=VERTEX_POINT('',#530);
#183=VERTEX_POINT('',#533);
#184=VERTEX_POINT('',#536);
#185=VERTEX_POINT('',#538);
#186=VERTEX_POINT('',#541);
#187=VERTEX_POINT('',#545);
#188=VERTEX_POINT('',#547);
#189=VERTEX_POINT('',#550);
#190=VERTEX_POINT('',#553);
#191=VERTEX_POINT('',#555);
#192=VERTEX_POINT('',#557);
#193=VERTEX_POINT('',#561);
#194=VERTEX_POINT('',#563);
#195=VERTEX_POINT('',#566);
#196=VERTEX_POINT('',#570);
#197=VERTEX_POINT('',#572);
#198=VERTEX_POINT('',#576);
#199=VERTEX_POINT('',#579);
#200=VERTEX_POINT('',#581);
#201=VERTEX_POINT('',#585);
#202=VERTEX_POINT('',#588);
#203=VERTEX_POINT('',#592);
#204=VERTEX_POINT('',#596);
#205=EDGE_CURVE('',#176,#176,#147,.T.);
#206=EDGE_CURVE('',#177,#177,#148,.T.);
#207=EDGE_CURVE('',#178,#178,#149,.T.);
#208=EDGE_CURVE('',#179,#179,#150,.T.);
#209=EDGE_CURVE('',#180,#180,#151,.T.);
#210=EDGE_CURVE('',#181,#181,#152,.T.);
#211=EDGE_CURVE('',#182,#182,#153,.T.);
#212=EDGE_CURVE('',#183,#183,#154,.T.);
#213=EDGE_CURVE('',#184,#184,#155,.T.);
#214=EDGE_CURVE('',#185,#185,#156,.T.);
#215=EDGE_CURVE('',#186,#186,#157,.T.);
#216=EDGE_CURVE('',#187,#187,#158,.T.);
#217=EDGE_CURVE('',#188,#188,#159,.T.);
#218=EDGE_CURVE('',#189,#189,#160,.T.);
#219=EDGE_CURVE('',#190,#190,#161,.T.);
#220=EDGE_CURVE('',#191,#191,#162,.T.);
#221=EDGE_CURVE('',#192,#192,#163,.T.);
#222=EDGE_CURVE('',#193,#193,#164,.T.);
#223=EDGE_CURVE('',#194,#194,#165,.T.);
#224=EDGE_CURVE('',#195,#195,#166,.T.);
#225=EDGE_CURVE('',#196,#196,#167,.T.);
#226=EDGE_CURVE('',#197,#197,#168,.T.);
#227=EDGE_CURVE('',#198,#198,#169,.T.);
#228=EDGE_CURVE('',#199,#199,#170,.T.);
#229=EDGE_CURVE('',#200,#200,#171,.T.);
#230=EDGE_CURVE('',#201,#201,#172,.T.);
#231=EDGE_CURVE('',#202,#202,#173,.T.);
#232=EDGE_CURVE('',#203,#203,#174,.T.);
#233=EDGE_CURVE('',#204,#204,#175,.T.);
#234=ORIENTED_EDGE('',*,*,#205,.F.);
#235=ORIENTED_EDGE('',*,*,#206,.T.);
#236=ORIENTED_EDGE('',*,*,#207,.F.);
#237=ORIENTED_EDGE('',*,*,#206,.F.);
#238=ORIENTED_EDGE('',*,*,#205,.T.);
#239=ORIENTED_EDGE('',*,*,#208,.F.);
#240=ORIENTED_EDGE('',*,*,#209,.T.);
#241=ORIENTED_EDGE('',*,*,#210,.T.);
#242=ORIENTED_EDGE('',*,*,#211,.F.);
#243=ORIENTED_EDGE('',*,*,#210,.F.);
#244=ORIENTED_EDGE('',*,*,#212,.T.);
#245=ORIENTED_EDGE('',*,*,#209,.F.);
#246=ORIENTED_EDGE('',*,*,#213,.T.);
#247=ORIENTED_EDGE('',*,*,#214,.T.);
#248=ORIENTED_EDGE('',*,*,#215,.T.);
#249=ORIENTED_EDGE('',*,*,#213,.F.);
#250=ORIENTED_EDGE('',*,*,#207,.T.);
#251=ORIENTED_EDGE('',*,*,#214,.F.);
#252=ORIENTED_EDGE('',*,*,#216,.T.);
#253=ORIENTED_EDGE('',*,*,#217,.T.);
#254=ORIENTED_EDGE('',*,*,#218,.F.);
#255=ORIENTED_EDGE('',*,*,#216,.F.);
#256=ORIENTED_EDGE('',*,*,#215,.F.);
#257=ORIENTED_EDGE('',*,*,#219,.T.);
#258=ORIENTED_EDGE('',*,*,#220,.T.);
#259=ORIENTED_EDGE('',*,*,#221,.T.);
#260=ORIENTED_EDGE('',*,*,#217,.F.);
#261=ORIENTED_EDGE('',*,*,#211,.T.);
#262=ORIENTED_EDGE('',*,*,#218,.T.);
#263=ORIENTED_EDGE('',*,*,#222,.T.);
#264=ORIENTED_EDGE('',*,*,#223,.T.);
#265=ORIENTED_EDGE('',*,*,#224,.T.);
#266=ORIENTED_EDGE('',*,*,#222,.F.);
#267=ORIENTED_EDGE('',*,*,#208,.T.);
#268=ORIENTED_EDGE('',*,*,#223,.F.);
#269=ORIENTED_EDGE('',*,*,#225,.T.);
#270=ORIENTED_EDGE('',*,*,#226,.T.);
#271=ORIENTED_EDGE('',*,*,#224,.F.);
#272=ORIENTED_EDGE('',*,*,#225,.F.);
#273=ORIENTED_EDGE('',*,*,#227,.F.);
#274=ORIENTED_EDGE('',*,*,#226,.F.);
#275=ORIENTED_EDGE('',*,*,#228,.T.);
#276=ORIENTED_EDGE('',*,*,#229,.T.);
#277=ORIENTED_EDGE('',*,*,#227,.T.);
#278=ORIENTED_EDGE('',*,*,#228,.F.);
#279=ORIENTED_EDGE('',*,*,#230,.F.);
#280=ORIENTED_EDGE('',*,*,#229,.F.);
#281=ORIENTED_EDGE('',*,*,#231,.T.);
#282=ORIENTED_EDGE('',*,*,#221,.F.);
#283=ORIENTED_EDGE('',*,*,#231,.F.);
#284=ORIENTED_EDGE('',*,*,#232,.T.);
#285=ORIENTED_EDGE('',*,*,#220,.F.);
#286=ORIENTED_EDGE('',*,*,#232,.F.);
#287=ORIENTED_EDGE('',*,*,#233,.T.);
#288=ORIENTED_EDGE('',*,*,#219,.F.);
#289=ORIENTED_EDGE('',*,*,#233,.F.);
#290=ORIENTED_EDGE('',*,*,#212,.F.);
#291=ORIENTED_EDGE('',*,*,#230,.T.);
#292=CONICAL_SURFACE('',#336,2.8,59.);
#293=CONICAL_SURFACE('',#350,6.75,45.0000000000002);
#294=CONICAL_SURFACE('',#356,16.75,44.9999999999997);
#295=CONICAL_SURFACE('',#365,16.75,45.);
#296=CONICAL_SURFACE('',#366,6.75,45.0000000000001);
#297=CONICAL_SURFACE('',#372,7.20370767182382,45.7155000000007);
#298=CONICAL_SURFACE('',#376,8.1574521400719,1.43100000000001);
#299=CONICAL_SURFACE('',#378,10.5,45.);
#300=CONICAL_SURFACE('',#384,0.61475,59.);
#301=CONICAL_SURFACE('',#387,0.61475,59.);
#302=CONICAL_SURFACE('',#390,0.61475,59.);
#303=CONICAL_SURFACE('',#393,10.5,45.);
#304=ADVANCED_FACE('',(#65,#31),#292,.F.);
#305=ADVANCED_FACE('',(#66,#32),#21,.F.);
#306=ADVANCED_FACE('',(#67,#33),#22,.F.);
#307=ADVANCED_FACE('',(#68,#34),#20,.F.);
#308=ADVANCED_FACE('',(#69,#35),#14,.T.);
#309=ADVANCED_FACE('',(#70,#36),#23,.T.);
#310=ADVANCED_FACE('',(#71,#37),#293,.T.);
#311=ADVANCED_FACE('',(#72,#38),#24,.T.);
#312=ADVANCED_FACE('',(#39,#40),#15,.T.);
#313=ADVANCED_FACE('',(#73,#41),#294,.T.);
#314=ADVANCED_FACE('',(#74,#42),#25,.T.);
#315=ADVANCED_FACE('',(#43,#44,#45,#46,#47),#16,.T.);
#316=ADVANCED_FACE('',(#75,#48),#295,.T.);
#317=ADVANCED_FACE('',(#76,#49),#296,.T.);
#318=ADVANCED_FACE('',(#77,#50),#26,.T.);
#319=ADVANCED_FACE('',(#51,#52),#17,.T.);
#320=ADVANCED_FACE('',(#78,#53),#297,.T.);
#321=ADVANCED_FACE('',(#54,#55),#18,.F.);
#322=ADVANCED_FACE('',(#79,#56),#298,.T.);
#323=ADVANCED_FACE('',(#80,#57),#299,.T.);
#324=ADVANCED_FACE('',(#58,#59),#19,.T.);
#325=ADVANCED_FACE('',(#81,#60),#27,.T.);
#326=ADVANCED_FACE('',(#82),#300,.F.);
#327=ADVANCED_FACE('',(#83,#61),#28,.F.);
#328=ADVANCED_FACE('',(#84),#301,.F.);
#329=ADVANCED_FACE('',(#85,#62),#29,.F.);
#330=ADVANCED_FACE('',(#86),#302,.F.);
#331=ADVANCED_FACE('',(#87,#63),#30,.F.);
#332=ADVANCED_FACE('',(#88,#64),#303,.T.);
#333=CLOSED_SHELL('',(#304,#305,#306,#307,#308,#309,#310,#311,#312,#313,
#314,#315,#316,#317,#318,#319,#320,#321,#322,#323,#324,#325,#326,#327,#328,
#329,#330,#331,#332));
#334=MANIFOLD_SOLID_BREP('Volumenk\X\F6rper1',#333);
#335=AXIS2_PLACEMENT_3D('placement',#512,#394,#395);
#336=AXIS2_PLACEMENT_3D('',#513,#396,#397);
#337=AXIS2_PLACEMENT_3D('',#515,#398,#399);
#338=AXIS2_PLACEMENT_3D('',#517,#400,#401);
#339=AXIS2_PLACEMENT_3D('',#518,#402,#403);
#340=AXIS2_PLACEMENT_3D('',#520,#404,#405);
#341=AXIS2_PLACEMENT_3D('',#521,#406,#407);
#342=AXIS2_PLACEMENT_3D('',#523,#408,#409);
#343=AXIS2_PLACEMENT_3D('',#524,#410,#411);
#344=AXIS2_PLACEMENT_3D('',#526,#412,#413);
#345=AXIS2_PLACEMENT_3D('',#528,#414,#415);
#346=AXIS2_PLACEMENT_3D('',#529,#416,#417);
#347=AXIS2_PLACEMENT_3D('',#531,#418,#419);
#348=AXIS2_PLACEMENT_3D('',#532,#420,#421);
#349=AXIS2_PLACEMENT_3D('',#534,#422,#423);
#350=AXIS2_PLACEMENT_3D('',#535,#424,#425);
#351=AXIS2_PLACEMENT_3D('',#537,#426,#427);
#352=AXIS2_PLACEMENT_3D('',#539,#428,#429);
#353=AXIS2_PLACEMENT_3D('',#540,#430,#431);
#354=AXIS2_PLACEMENT_3D('',#542,#432,#433);
#355=AXIS2_PLACEMENT_3D('',#543,#434,#435);
#356=AXIS2_PLACEMENT_3D('',#544,#436,#437);
#357=AXIS2_PLACEMENT_3D('',#546,#438,#439);
#358=AXIS2_PLACEMENT_3D('',#548,#440,#441);
#359=AXIS2_PLACEMENT_3D('',#549,#442,#443);
#360=AXIS2_PLACEMENT_3D('',#551,#444,#445);
#361=AXIS2_PLACEMENT_3D('',#552,#446,#447);
#362=AXIS2_PLACEMENT_3D('',#554,#448,#449);
#363=AXIS2_PLACEMENT_3D('',#556,#450,#451);
#364=AXIS2_PLACEMENT_3D('',#558,#452,#453);
#365=AXIS2_PLACEMENT_3D('',#559,#454,#455);
#366=AXIS2_PLACEMENT_3D('',#560,#456,#457);
#367=AXIS2_PLACEMENT_3D('',#562,#458,#459);
#368=AXIS2_PLACEMENT_3D('',#564,#460,#461);
#369=AXIS2_PLACEMENT_3D('',#565,#462,#463);
#370=AXIS2_PLACEMENT_3D('',#567,#464,#465);
#371=AXIS2_PLACEMENT_3D('',#568,#466,#467);
#372=AXIS2_PLACEMENT_3D('',#569,#468,#469);
#373=AXIS2_PLACEMENT_3D('',#571,#470,#471);
#374=AXIS2_PLACEMENT_3D('',#573,#472,#473);
#375=AXIS2_PLACEMENT_3D('',#574,#474,#475);
#376=AXIS2_PLACEMENT_3D('',#575,#476,#477);
#377=AXIS2_PLACEMENT_3D('',#577,#478,#479);
#378=AXIS2_PLACEMENT_3D('',#578,#480,#481);
#379=AXIS2_PLACEMENT_3D('',#580,#482,#483);
#380=AXIS2_PLACEMENT_3D('',#582,#484,#485);
#381=AXIS2_PLACEMENT_3D('',#583,#486,#487);
#382=AXIS2_PLACEMENT_3D('',#584,#488,#489);
#383=AXIS2_PLACEMENT_3D('',#586,#490,#491);
#384=AXIS2_PLACEMENT_3D('',#587,#492,#493);
#385=AXIS2_PLACEMENT_3D('',#589,#494,#495);
#386=AXIS2_PLACEMENT_3D('',#590,#496,#497);
#387=AXIS2_PLACEMENT_3D('',#591,#498,#499);
#388=AXIS2_PLACEMENT_3D('',#593,#500,#501);
#389=AXIS2_PLACEMENT_3D('',#594,#502,#503);
#390=AXIS2_PLACEMENT_3D('',#595,#504,#505);
#391=AXIS2_PLACEMENT_3D('',#597,#506,#507);
#392=AXIS2_PLACEMENT_3D('',#598,#508,#509);
#393=AXIS2_PLACEMENT_3D('',#599,#510,#511);
#394=DIRECTION('axis',(0.,0.,1.));
#395=DIRECTION('refdir',(1.,0.,0.));
#396=DIRECTION('center_axis',(1.,1.1199965164169E-016,0.));
#397=DIRECTION('ref_axis',(0.,0.,-1.));
#398=DIRECTION('center_axis',(1.,1.1199965164169E-016,0.));
#399=DIRECTION('ref_axis',(0.,0.,1.));
#400=DIRECTION('center_axis',(1.,1.1199965164169E-016,0.));
#401=DIRECTION('ref_axis',(0.,0.,-1.));
#402=DIRECTION('center_axis',(1.,1.1199965164169E-016,0.));
#403=DIRECTION('ref_axis',(0.,0.,-1.));
#404=DIRECTION('center_axis',(-1.,-1.1199965164169E-016,0.));
#405=DIRECTION('ref_axis',(0.,0.,-1.));
#406=DIRECTION('center_axis',(-1.,-1.1199965164169E-016,0.));
#407=DIRECTION('ref_axis',(0.,0.,1.));
#408=DIRECTION('center_axis',(1.,1.1199965164169E-016,0.));
#409=DIRECTION('ref_axis',(0.,0.,1.));
#410=DIRECTION('center_axis',(1.,1.1199965164169E-016,0.));
#411=DIRECTION('ref_axis',(0.,0.,-1.));
#412=DIRECTION('center_axis',(1.,1.1199965164169E-016,0.));
#413=DIRECTION('ref_axis',(1.11022302462516E-016,-1.,1.22464679914735E-016));
#414=DIRECTION('center_axis',(-1.,-1.1199965164169E-016,0.));
#415=DIRECTION('ref_axis',(1.1199965164169E-016,-1.,1.22464679914735E-016));
#416=DIRECTION('center_axis',(-1.,-1.1199965164169E-016,0.));
#417=DIRECTION('ref_axis',(0.,0.,1.));
#418=DIRECTION('center_axis',(1.,1.1199965164169E-016,0.));
#419=DIRECTION('ref_axis',(1.1199965164169E-016,-1.,0.));
#420=DIRECTION('center_axis',(1.,1.1199965164169E-016,0.));
#421=DIRECTION('ref_axis',(0.,1.,0.));
#422=DIRECTION('center_axis',(1.,1.1199965164169E-016,0.));
#423=DIRECTION('ref_axis',(0.,1.,0.));
#424=DIRECTION('center_axis',(-1.,-1.1199965164169E-016,0.));
#425=DIRECTION('ref_axis',(5.39257581978507E-017,-1.,0.));
#426=DIRECTION('center_axis',(1.,1.1199965164169E-016,0.));
#427=DIRECTION('ref_axis',(0.,-1.,0.));
#428=DIRECTION('center_axis',(-1.,-1.1199965164169E-016,0.));
#429=DIRECTION('ref_axis',(1.1199965164169E-016,-1.,0.));
#430=DIRECTION('center_axis',(1.,1.1199965164169E-016,0.));
#431=DIRECTION('ref_axis',(0.,1.,0.));
#432=DIRECTION('center_axis',(1.,1.1199965164169E-016,0.));
#433=DIRECTION('ref_axis',(0.,1.,0.));
#434=DIRECTION('center_axis',(1.,1.1199965164169E-016,0.));
#435=DIRECTION('ref_axis',(0.,0.,-1.));
#436=DIRECTION('center_axis',(-1.,-1.11999651641691E-016,0.));
#437=DIRECTION('ref_axis',(5.51640075250115E-017,-1.,0.));
#438=DIRECTION('center_axis',(1.,1.1199965164169E-016,0.));
#439=DIRECTION('ref_axis',(0.,-1.,0.));
#440=DIRECTION('center_axis',(-1.,-1.1199965164169E-016,0.));
#441=DIRECTION('ref_axis',(1.1199965164169E-016,-1.,0.));
#442=DIRECTION('center_axis',(1.,1.1199965164169E-016,0.));
#443=DIRECTION('ref_axis',(0.,1.,0.));
#444=DIRECTION('center_axis',(-1.,-1.1199965164169E-016,0.));
#445=DIRECTION('ref_axis',(0.,-1.,0.));
#446=DIRECTION('center_axis',(1.,1.1199965164169E-016,0.));
#447=DIRECTION('ref_axis',(0.,0.,-1.));
#448=DIRECTION('center_axis',(-1.,-1.1199965164169E-016,0.));
#449=DIRECTION('ref_axis',(0.,0.,-1.));
#450=DIRECTION('center_axis',(-1.,-1.1199965164169E-016,0.));
#451=DIRECTION('ref_axis',(0.,0.866025403784439,0.5));
#452=DIRECTION('center_axis',(-1.,-1.1199965164169E-016,0.));
#453=DIRECTION('ref_axis',(0.,-0.866025403784438,0.5));
#454=DIRECTION('center_axis',(1.,1.11999651641689E-016,0.));
#455=DIRECTION('ref_axis',(5.51640075250115E-017,-1.,0.));
#456=DIRECTION('center_axis',(1.,1.1199965164169E-016,0.));
#457=DIRECTION('ref_axis',(0.,0.,-1.));
#458=DIRECTION('center_axis',(-1.,-1.1199965164169E-016,0.));
#459=DIRECTION('ref_axis',(0.,0.,-1.));
#460=DIRECTION('center_axis',(1.,1.1199965164169E-016,0.));
#461=DIRECTION('ref_axis',(0.,0.,-1.));
#462=DIRECTION('center_axis',(1.,1.1199965164169E-016,0.));
#463=DIRECTION('ref_axis',(0.,0.,-1.));
#464=DIRECTION('center_axis',(-1.,-1.1199965164169E-016,0.));
#465=DIRECTION('ref_axis',(0.,0.,-1.));
#466=DIRECTION('center_axis',(-1.,-1.1199965164169E-016,0.));
#467=DIRECTION('ref_axis',(0.,0.,1.));
#468=DIRECTION('center_axis',(1.,-7.46897283334003E-016,-1.50218216730064E-015));
#469=DIRECTION('ref_axis',(-5.48046430955315E-017,1.,3.12695991088181E-017));
#470=DIRECTION('center_axis',(1.,1.1199965164169E-016,0.));
#471=DIRECTION('ref_axis',(-1.1199965164169E-016,1.,0.));
#472=DIRECTION('center_axis',(-1.,0.,0.));
#473=DIRECTION('ref_axis',(0.,1.,6.12323399573677E-017));
#474=DIRECTION('center_axis',(1.,1.1199965164169E-016,0.));
#475=DIRECTION('ref_axis',(0.,0.,-1.));
#476=DIRECTION('center_axis',(1.,1.1199965164169E-016,0.));
#477=DIRECTION('ref_axis',(0.,1.,0.));
#478=DIRECTION('center_axis',(1.,1.1199965164169E-016,0.));
#479=DIRECTION('ref_axis',(0.,1.,0.));
#480=DIRECTION('center_axis',(1.,1.1199965164169E-016,0.));
#481=DIRECTION('ref_axis',(5.33331674484238E-017,-1.,0.));
#482=DIRECTION('center_axis',(1.,1.1199965164169E-016,0.));
#483=DIRECTION('ref_axis',(1.1199965164169E-016,-1.,0.));
#484=DIRECTION('center_axis',(-1.,-1.1199965164169E-016,0.));
#485=DIRECTION('ref_axis',(0.,-1.,0.));
#486=DIRECTION('center_axis',(-1.,-1.1199965164169E-016,0.));
#487=DIRECTION('ref_axis',(0.,0.,1.));
#488=DIRECTION('center_axis',(1.,1.1199965164169E-016,0.));
#489=DIRECTION('ref_axis',(0.,1.,0.));
#490=DIRECTION('center_axis',(1.,1.1199965164169E-016,0.));
#491=DIRECTION('ref_axis',(0.,1.,0.));
#492=DIRECTION('center_axis',(1.,-5.59998258208451E-017,-9.6994543536711E-017));
#493=DIRECTION('ref_axis',(0.,-0.866025403784438,0.5));
#494=DIRECTION('center_axis',(1.,-5.59998258208451E-017,-9.6994543536711E-017));
#495=DIRECTION('ref_axis',(0.,-0.866025403784438,0.5));
#496=DIRECTION('center_axis',(1.,-5.59998258208451E-017,-9.6994543536711E-017));
#497=DIRECTION('ref_axis',(0.,-0.866025403784438,0.5));
#498=DIRECTION('center_axis',(1.,-5.5999825820845E-017,9.69945435367111E-017));
#499=DIRECTION('ref_axis',(0.,0.866025403784439,0.5));
#500=DIRECTION('center_axis',(1.,-5.5999825820845E-017,9.69945435367111E-017));
#501=DIRECTION('ref_axis',(0.,0.866025403784439,0.5));
#502=DIRECTION('center_axis',(1.,-5.5999825820845E-017,9.69945435367111E-017));
#503=DIRECTION('ref_axis',(0.,0.866025403784439,0.5));
#504=DIRECTION('center_axis',(1.,1.1199965164169E-016,0.));
#505=DIRECTION('ref_axis',(0.,0.,-1.));
#506=DIRECTION('center_axis',(1.,1.1199965164169E-016,0.));
#507=DIRECTION('ref_axis',(0.,0.,-1.));
#508=DIRECTION('center_axis',(1.,1.1199965164169E-016,0.));
#509=DIRECTION('ref_axis',(0.,0.,-1.));
#510=DIRECTION('center_axis',(-1.,-1.1199965164169E-016,0.));
#511=DIRECTION('ref_axis',(0.,1.,0.));
#512=CARTESIAN_POINT('',(0.,0.,0.));
#513=CARTESIAN_POINT('Origin',(-43.1824097332772,-1.81995212367562E-015,
0.));
#514=CARTESIAN_POINT('',(-42.18588239662,-1.16233263371874E-015,-4.4585));
#515=CARTESIAN_POINT('Origin',(-42.18588239662,-1.70834140911859E-015,0.));
#516=CARTESIAN_POINT('',(-41.5,-1.63152281962999E-015,-5.6));
#517=CARTESIAN_POINT('Origin',(-41.5,-1.63152281962999E-015,0.));
#518=CARTESIAN_POINT('Origin',(-2.,2.79246342021676E-015,0.));
#519=CARTESIAN_POINT('',(37.5,7.21644966006352E-015,-5.6));
#520=CARTESIAN_POINT('Origin',(37.5,7.21644966006352E-015,0.));
#521=CARTESIAN_POINT('Origin',(49.0653576834802,8.51176569172484E-015,0.));
#522=CARTESIAN_POINT('',(-56.6709958856069,-3.33066907387547E-015,4.4585));
#523=CARTESIAN_POINT('Origin',(-56.6709958856069,-3.33066907387547E-015,
0.));
#524=CARTESIAN_POINT('Origin',(22.1,5.49165502478149E-015,0.));
#525=CARTESIAN_POINT('',(22.1,10.,0.));
#526=CARTESIAN_POINT('Origin',(22.1,5.49165502478149E-015,0.));
#527=CARTESIAN_POINT('',(22.5,10.4,-2.54726534222649E-015));
#528=CARTESIAN_POINT('Origin',(22.5,5.53645488543817E-015,0.));
#529=CARTESIAN_POINT('Origin',(22.5,13.5,0.));
#530=CARTESIAN_POINT('',(22.5,16.5,2.02066721859313E-015));
#531=CARTESIAN_POINT('Origin',(22.5,5.53645488543817E-015,0.));
#532=CARTESIAN_POINT('Origin',(21.9,5.46925509445315E-015,0.));
#533=CARTESIAN_POINT('',(21.3,10.,0.));
#534=CARTESIAN_POINT('Origin',(21.3,5.40205530346814E-015,0.));
#535=CARTESIAN_POINT('Origin',(37.25,7.18844974715309E-015,0.));
#536=CARTESIAN_POINT('',(37.,7.00000000000001,8.57252759403147E-016));
#537=CARTESIAN_POINT('Origin',(37.,7.16044983424267E-015,0.));
#538=CARTESIAN_POINT('',(37.5,6.50000000000001,-7.9602041944578E-016));
#539=CARTESIAN_POINT('Origin',(37.5,7.21644966006352E-015,0.));
#540=CARTESIAN_POINT('Origin',(36.,7.04845018260098E-015,0.));
#541=CARTESIAN_POINT('',(34.5,7.00000000000001,0.));
#542=CARTESIAN_POINT('Origin',(34.5,6.88045070513845E-015,0.));
#543=CARTESIAN_POINT('Origin',(37.5,3.50000000000001,0.));
#544=CARTESIAN_POINT('Origin',(34.25,6.85245079222803E-015,0.));
#545=CARTESIAN_POINT('',(34.,17.,2.0818995585505E-015));
#546=CARTESIAN_POINT('Origin',(34.,6.8244508793176E-015,0.));
#547=CARTESIAN_POINT('',(34.5,16.5,-2.02066721859313E-015));
#548=CARTESIAN_POINT('Origin',(34.5,6.88045070513845E-015,0.));
#549=CARTESIAN_POINT('Origin',(28.5,6.20845279528831E-015,0.));
#550=CARTESIAN_POINT('',(23.,17.,-2.0818995585505E-015));
#551=CARTESIAN_POINT('Origin',(23.,5.59245471125901E-015,0.));
#552=CARTESIAN_POINT('Origin',(34.5,12.,0.));
#553=CARTESIAN_POINT('',(34.5,-8.99999999999999,-1.2295));
#554=CARTESIAN_POINT('Origin',(34.5,-8.99999999999999,0.));
#555=CARTESIAN_POINT('',(34.5,5.56477823395297,-7.17947863405995));
#556=CARTESIAN_POINT('Origin',(34.5,4.50000000000001,-7.79422863405995));
#557=CARTESIAN_POINT('',(34.5,3.43522176604705,8.40897863405995));
#558=CARTESIAN_POINT('Origin',(34.5,4.50000000000001,7.79422863405995));
#559=CARTESIAN_POINT('Origin',(22.75,5.56445479834859E-015,0.));
#560=CARTESIAN_POINT('Origin',(-56.4209958856068,-3.30266916096505E-015,
0.));
#561=CARTESIAN_POINT('',(-56.1709958856069,-2.41741648865148E-015,7.));
#562=CARTESIAN_POINT('Origin',(-56.1709958856069,-3.27466924805463E-015,
0.));
#563=CARTESIAN_POINT('',(-56.6709958856069,-4.12668949332125E-015,6.5));
#564=CARTESIAN_POINT('Origin',(-56.6709958856069,-3.33066907387547E-015,
0.));
#565=CARTESIAN_POINT('Origin',(-56.6709958856069,-3.33066907387547E-015,
0.));
#566=CARTESIAN_POINT('',(-54.6709958856069,-2.24941701118894E-015,7.));
#567=CARTESIAN_POINT('Origin',(-54.6709958856069,-3.10666977059209E-015,
0.));
#568=CARTESIAN_POINT('Origin',(-56.6709958856069,3.65,0.));
#569=CARTESIAN_POINT('Origin',(-54.5210426669504,-3.21866942223378E-015,
-2.25257050995048E-016));
#570=CARTESIAN_POINT('',(-54.6709958856069,-7.04996171205752,-8.63371304478264E-016));
#571=CARTESIAN_POINT('Origin',(-54.6709958856069,-3.10666977059209E-015,
0.));
#572=CARTESIAN_POINT('',(-54.371089448294,-7.35745363159013,0.));
#573=CARTESIAN_POINT('Origin',(-54.371089448294,-3.33066907387547E-015,
-4.50514101990096E-016));
#574=CARTESIAN_POINT('Origin',(-54.6709958856069,-3.10666977059209E-015,
0.));
#575=CARTESIAN_POINT('Origin',(-22.3466260928034,5.1364838573906E-016,0.));
#576=CARTESIAN_POINT('',(11.9777437,9.0149042801438,0.));
#577=CARTESIAN_POINT('Origin',(11.9777437,4.35796584535359E-015,0.));
#578=CARTESIAN_POINT('Origin',(12.4777437,4.41396567117444E-015,0.));
#579=CARTESIAN_POINT('',(11.9777437,10.,1.22464679914735E-015));
#580=CARTESIAN_POINT('Origin',(11.9777437,4.35796584535359E-015,0.));
#581=CARTESIAN_POINT('',(12.9777437,11.,-1.34711147906209E-015));
#582=CARTESIAN_POINT('Origin',(12.9777437,4.46996549699528E-015,0.));
#583=CARTESIAN_POINT('Origin',(11.9777437,10.0074521400719,0.));
#584=CARTESIAN_POINT('Origin',(16.13887185,4.82401074859002E-015,0.));
#585=CARTESIAN_POINT('',(20.3,11.,0.));
#586=CARTESIAN_POINT('Origin',(20.3,5.29005565182645E-015,0.));
#587=CARTESIAN_POINT('Origin',(23.1306209344528,4.50000000000001,7.79422863405995));
#588=CARTESIAN_POINT('',(23.5,3.43522176604704,8.40897863405995));
#589=CARTESIAN_POINT('Origin',(23.5,4.50000000000001,7.79422863405995));
#590=CARTESIAN_POINT('Origin',(29.,4.50000000000001,7.79422863405995));
#591=CARTESIAN_POINT('Origin',(23.1306209344528,4.50000000000001,-7.79422863405995));
#592=CARTESIAN_POINT('',(23.5,5.56477823395297,-7.17947863405995));
#593=CARTESIAN_POINT('Origin',(23.5,4.50000000000001,-7.79422863405995));
#594=CARTESIAN_POINT('Origin',(29.,4.50000000000001,-7.79422863405995));
#595=CARTESIAN_POINT('Origin',(23.1306209344528,-8.99999999999999,0.));
#596=CARTESIAN_POINT('',(23.5,-8.99999999999999,-1.2295));
#597=CARTESIAN_POINT('Origin',(23.5,-8.99999999999999,0.));
#598=CARTESIAN_POINT('Origin',(29.,-8.99999999999999,0.));
#599=CARTESIAN_POINT('Origin',(20.8,5.3460554776473E-015,0.));
#600=UNCERTAINTY_MEASURE_WITH_UNIT(LENGTH_MEASURE(0.01),#604,
'DISTANCE_ACCURACY_VALUE',
'Maximum model space distance between geometric entities at asserted c
onnectivities');
#601=UNCERTAINTY_MEASURE_WITH_UNIT(LENGTH_MEASURE(1.E-006),#604,
'DISTANCE_ACCURACY_VALUE',
'Maximum model space distance between geometric entities at asserted c
onnectivities');
#602=(
GEOMETRIC_REPRESENTATION_CONTEXT(3)
GLOBAL_UNCERTAINTY_ASSIGNED_CONTEXT((#600))
GLOBAL_UNIT_ASSIGNED_CONTEXT((#604,#607,#605))
REPRESENTATION_CONTEXT('','3D')
);
#603=(
GEOMETRIC_REPRESENTATION_CONTEXT(3)
GLOBAL_UNCERTAINTY_ASSIGNED_CONTEXT((#601))
GLOBAL_UNIT_ASSIGNED_CONTEXT((#604,#607,#605))
REPRESENTATION_CONTEXT('','3D')
);
#604=(
LENGTH_UNIT()
NAMED_UNIT(*)
SI_UNIT(.MILLI.,.METRE.)
);
#605=(
NAMED_UNIT(*)
SI_UNIT($,.STERADIAN.)
SOLID_ANGLE_UNIT()
);
#606=DIMENSIONAL_EXPONENTS(0.,0.,0.,0.,0.,0.,0.);
#607=(
CONVERSION_BASED_UNIT('degree',#609)
NAMED_UNIT(#606)
PLANE_ANGLE_UNIT()
);
#608=(
NAMED_UNIT(*)
PLANE_ANGLE_UNIT()
SI_UNIT($,.RADIAN.)
);
#609=PLANE_ANGLE_MEASURE_WITH_UNIT(PLANE_ANGLE_MEASURE(0.01745329252),#608);
#610=SHAPE_DEFINITION_REPRESENTATION(#611,#612);
#611=PRODUCT_DEFINITION_SHAPE('',$,#614);
#612=SHAPE_REPRESENTATION('',(#335),#602);
#613=DESIGN_CONTEXT('part definition',#618,'design');
#614=PRODUCT_DEFINITION('DBF55_99-04 Aufnahme MK2',
'DBF55_99-04 Aufnahme MK2',#615,#613);
#615=PRODUCT_DEFINITION_FORMATION('',$,#620);
#616=PRODUCT_RELATED_PRODUCT_CATEGORY('DBF55_99-04 Aufnahme MK2',
'DBF55_99-04 Aufnahme MK2',(#620));
#617=APPLICATION_PROTOCOL_DEFINITION('international standard',
'ap203_configuration_controlled_3d_design_of_mechanical_parts_and_asse
mblies_mim_lf',2004,#618);
#618=APPLICATION_CONTEXT(
'Configuration Controlled 3D Design of Mechanical Parts and Assemblies');
#619=MECHANICAL_CONTEXT('part definition',#618,'mechanical');
#620=PRODUCT('DBF55_99-04 Aufnahme MK2','DBF55_99-04 Aufnahme MK2',$,(#619));
#621=PRESENTATION_STYLE_ASSIGNMENT((#622));
#622=SURFACE_STYLE_USAGE(.BOTH.,#623);
#623=SURFACE_SIDE_STYLE($,(#624));
#624=SURFACE_STYLE_FILL_AREA(#625);
#625=FILL_AREA_STYLE($,(#626));
#626=FILL_AREA_STYLE_COLOUR($,#627);
#627=COLOUR_RGB('',0.631372549019608,0.784313725490196,0.603921568627451);
ENDSEC;
END-ISO-10303-21;
