ISO-10303-21;
HEADER;
/* Generated by software containing ST-Developer
 * from STEP Tools, Inc. (www.steptools.com) 
 */

FILE_DESCRIPTION(
/* description */ ('Aufnahme MK2'),
/* implementation_level */ '2;1');

FILE_NAME(
/* name */ 
'Y:\\Futter\\Synchronisation Ordner\\(2) Dateien f\X\FCr Webseite\\Mor
se MK2\\DBF63_99-01a Aufnahme MK2.stp',
/* time_stamp */ '2022-01-29T18:52:38+01:00',
/* author */ ('MKoch'),
/* organization */ (''),
/* preprocessor_version */ 'ST-DEVELOPER v15.2',
/* originating_system */ 'Autodesk Inventor 2014',
/* authorisation */ '');

FILE_SCHEMA (('CONFIG_CONTROL_DESIGN'));
ENDSEC;

DATA;
#10=MECHANICAL_DESIGN_GEOMETRIC_PRESENTATION_REPRESENTATION('',(#13),#563);
#11=SHAPE_REPRESENTATION_RELATIONSHIP('SRR','None',#572,#12);
#12=ADVANCED_BREP_SHAPE_REPRESENTATION($,(#312),#562);
#13=STYLED_ITEM('',(#581),#312);
#14=CONICAL_SURFACE('',#324,5.75,45.0000000000002);
#15=CONICAL_SURFACE('',#330,16.75,44.9999999999997);
#16=CONICAL_SURFACE('',#339,16.75,45.);
#17=CONICAL_SURFACE('',#340,6.75,45.0000000000001);
#18=CONICAL_SURFACE('',#346,7.20370767182382,45.7155000000007);
#19=CONICAL_SURFACE('',#350,8.1574521400719,1.43100000000001);
#20=CONICAL_SURFACE('',#352,10.5,45.);
#21=CONICAL_SURFACE('',#358,0.61475,59.);
#22=CONICAL_SURFACE('',#361,0.61475,59.);
#23=CONICAL_SURFACE('',#364,0.61475,59.);
#24=CONICAL_SURFACE('',#367,10.5,45.);
#25=PLANE('',#320);
#26=PLANE('',#329);
#27=PLANE('',#335);
#28=PLANE('',#345);
#29=PLANE('',#349);
#30=PLANE('',#355);
#31=TOROIDAL_SURFACE('',#317,10.4,0.4);
#32=FACE_BOUND('',#87,.T.);
#33=FACE_BOUND('',#89,.T.);
#34=FACE_BOUND('',#91,.T.);
#35=FACE_BOUND('',#93,.T.);
#36=FACE_BOUND('',#95,.T.);
#37=FACE_BOUND('',#97,.T.);
#38=FACE_BOUND('',#98,.T.);
#39=FACE_BOUND('',#99,.T.);
#40=FACE_BOUND('',#101,.T.);
#41=FACE_BOUND('',#103,.T.);
#42=FACE_BOUND('',#104,.T.);
#43=FACE_BOUND('',#105,.T.);
#44=FACE_BOUND('',#106,.T.);
#45=FACE_BOUND('',#107,.T.);
#46=FACE_BOUND('',#108,.T.);
#47=FACE_BOUND('',#110,.T.);
#48=FACE_BOUND('',#112,.T.);
#49=FACE_BOUND('',#114,.T.);
#50=FACE_BOUND('',#115,.T.);
#51=FACE_BOUND('',#116,.T.);
#52=FACE_BOUND('',#118,.T.);
#53=FACE_BOUND('',#119,.T.);
#54=FACE_BOUND('',#120,.T.);
#55=FACE_BOUND('',#122,.T.);
#56=FACE_BOUND('',#124,.T.);
#57=FACE_BOUND('',#125,.T.);
#58=FACE_BOUND('',#126,.T.);
#59=FACE_BOUND('',#128,.T.);
#60=FACE_BOUND('',#131,.T.);
#61=FACE_BOUND('',#134,.T.);
#62=FACE_BOUND('',#137,.T.);
#63=FACE_BOUND('',#139,.T.);
#64=FACE_OUTER_BOUND('',#86,.T.);
#65=FACE_OUTER_BOUND('',#88,.T.);
#66=FACE_OUTER_BOUND('',#90,.T.);
#67=FACE_OUTER_BOUND('',#92,.T.);
#68=FACE_OUTER_BOUND('',#94,.T.);
#69=FACE_OUTER_BOUND('',#96,.T.);
#70=FACE_OUTER_BOUND('',#100,.T.);
#71=FACE_OUTER_BOUND('',#102,.T.);
#72=FACE_OUTER_BOUND('',#109,.T.);
#73=FACE_OUTER_BOUND('',#111,.T.);
#74=FACE_OUTER_BOUND('',#113,.T.);
#75=FACE_OUTER_BOUND('',#117,.T.);
#76=FACE_OUTER_BOUND('',#121,.T.);
#77=FACE_OUTER_BOUND('',#123,.T.);
#78=FACE_OUTER_BOUND('',#127,.T.);
#79=FACE_OUTER_BOUND('',#129,.T.);
#80=FACE_OUTER_BOUND('',#130,.T.);
#81=FACE_OUTER_BOUND('',#132,.T.);
#82=FACE_OUTER_BOUND('',#133,.T.);
#83=FACE_OUTER_BOUND('',#135,.T.);
#84=FACE_OUTER_BOUND('',#136,.T.);
#85=FACE_OUTER_BOUND('',#138,.T.);
#86=EDGE_LOOP('',(#221));
#87=EDGE_LOOP('',(#222));
#88=EDGE_LOOP('',(#223));
#89=EDGE_LOOP('',(#224));
#90=EDGE_LOOP('',(#225));
#91=EDGE_LOOP('',(#226));
#92=EDGE_LOOP('',(#227));
#93=EDGE_LOOP('',(#228));
#94=EDGE_LOOP('',(#229));
#95=EDGE_LOOP('',(#230));
#96=EDGE_LOOP('',(#231));
#97=EDGE_LOOP('',(#232));
#98=EDGE_LOOP('',(#233));
#99=EDGE_LOOP('',(#234));
#100=EDGE_LOOP('',(#235));
#101=EDGE_LOOP('',(#236));
#102=EDGE_LOOP('',(#237));
#103=EDGE_LOOP('',(#238));
#104=EDGE_LOOP('',(#239));
#105=EDGE_LOOP('',(#240));
#106=EDGE_LOOP('',(#241));
#107=EDGE_LOOP('',(#242));
#108=EDGE_LOOP('',(#243));
#109=EDGE_LOOP('',(#244));
#110=EDGE_LOOP('',(#245));
#111=EDGE_LOOP('',(#246));
#112=EDGE_LOOP('',(#247));
#113=EDGE_LOOP('',(#248));
#114=EDGE_LOOP('',(#249));
#115=EDGE_LOOP('',(#250));
#116=EDGE_LOOP('',(#251));
#117=EDGE_LOOP('',(#252));
#118=EDGE_LOOP('',(#253));
#119=EDGE_LOOP('',(#254));
#120=EDGE_LOOP('',(#255));
#121=EDGE_LOOP('',(#256));
#122=EDGE_LOOP('',(#257));
#123=EDGE_LOOP('',(#258));
#124=EDGE_LOOP('',(#259));
#125=EDGE_LOOP('',(#260));
#126=EDGE_LOOP('',(#261));
#127=EDGE_LOOP('',(#262));
#128=EDGE_LOOP('',(#263));
#129=EDGE_LOOP('',(#264));
#130=EDGE_LOOP('',(#265));
#131=EDGE_LOOP('',(#266));
#132=EDGE_LOOP('',(#267));
#133=EDGE_LOOP('',(#268));
#134=EDGE_LOOP('',(#269));
#135=EDGE_LOOP('',(#270));
#136=EDGE_LOOP('',(#271));
#137=EDGE_LOOP('',(#272));
#138=EDGE_LOOP('',(#273));
#139=EDGE_LOOP('',(#274));
#140=CIRCLE('',#315,4.4585);
#141=CIRCLE('',#316,4.4585);
#142=CIRCLE('',#318,10.);
#143=CIRCLE('',#319,10.4);
#144=CIRCLE('',#321,16.5);
#145=CIRCLE('',#323,10.);
#146=CIRCLE('',#325,6.);
#147=CIRCLE('',#326,5.5);
#148=CIRCLE('',#328,6.);
#149=CIRCLE('',#331,17.);
#150=CIRCLE('',#332,16.5);
#151=CIRCLE('',#334,17.);
#152=CIRCLE('',#336,1.2295);
#153=CIRCLE('',#337,1.2295);
#154=CIRCLE('',#338,1.2295);
#155=CIRCLE('',#341,7.);
#156=CIRCLE('',#342,6.5);
#157=CIRCLE('',#344,7.);
#158=CIRCLE('',#347,7.04996171205752);
#159=CIRCLE('',#348,7.35745363159013);
#160=CIRCLE('',#351,9.0149042801438);
#161=CIRCLE('',#353,10.);
#162=CIRCLE('',#354,11.);
#163=CIRCLE('',#357,11.);
#164=CIRCLE('',#359,1.2295);
#165=CIRCLE('',#362,1.2295);
#166=CIRCLE('',#365,1.2295);
#167=VERTEX_POINT('',#480);
#168=VERTEX_POINT('',#482);
#169=VERTEX_POINT('',#485);
#170=VERTEX_POINT('',#487);
#171=VERTEX_POINT('',#490);
#172=VERTEX_POINT('',#493);
#173=VERTEX_POINT('',#496);
#174=VERTEX_POINT('',#498);
#175=VERTEX_POINT('',#501);
#176=VERTEX_POINT('',#505);
#177=VERTEX_POINT('',#507);
#178=VERTEX_POINT('',#510);
#179=VERTEX_POINT('',#513);
#180=VERTEX_POINT('',#515);
#181=VERTEX_POINT('',#517);
#182=VERTEX_POINT('',#521);
#183=VERTEX_POINT('',#523);
#184=VERTEX_POINT('',#526);
#185=VERTEX_POINT('',#530);
#186=VERTEX_POINT('',#532);
#187=VERTEX_POINT('',#536);
#188=VERTEX_POINT('',#539);
#189=VERTEX_POINT('',#541);
#190=VERTEX_POINT('',#545);
#191=VERTEX_POINT('',#548);
#192=VERTEX_POINT('',#552);
#193=VERTEX_POINT('',#556);
#194=EDGE_CURVE('',#167,#167,#140,.T.);
#195=EDGE_CURVE('',#168,#168,#141,.T.);
#196=EDGE_CURVE('',#169,#169,#142,.T.);
#197=EDGE_CURVE('',#170,#170,#143,.T.);
#198=EDGE_CURVE('',#171,#171,#144,.T.);
#199=EDGE_CURVE('',#172,#172,#145,.T.);
#200=EDGE_CURVE('',#173,#173,#146,.T.);
#201=EDGE_CURVE('',#174,#174,#147,.T.);
#202=EDGE_CURVE('',#175,#175,#148,.T.);
#203=EDGE_CURVE('',#176,#176,#149,.T.);
#204=EDGE_CURVE('',#177,#177,#150,.T.);
#205=EDGE_CURVE('',#178,#178,#151,.T.);
#206=EDGE_CURVE('',#179,#179,#152,.T.);
#207=EDGE_CURVE('',#180,#180,#153,.T.);
#208=EDGE_CURVE('',#181,#181,#154,.T.);
#209=EDGE_CURVE('',#182,#182,#155,.T.);
#210=EDGE_CURVE('',#183,#183,#156,.T.);
#211=EDGE_CURVE('',#184,#184,#157,.T.);
#212=EDGE_CURVE('',#185,#185,#158,.T.);
#213=EDGE_CURVE('',#186,#186,#159,.T.);
#214=EDGE_CURVE('',#187,#187,#160,.T.);
#215=EDGE_CURVE('',#188,#188,#161,.T.);
#216=EDGE_CURVE('',#189,#189,#162,.T.);
#217=EDGE_CURVE('',#190,#190,#163,.T.);
#218=EDGE_CURVE('',#191,#191,#164,.T.);
#219=EDGE_CURVE('',#192,#192,#165,.T.);
#220=EDGE_CURVE('',#193,#193,#166,.T.);
#221=ORIENTED_EDGE('',*,*,#194,.F.);
#222=ORIENTED_EDGE('',*,*,#195,.F.);
#223=ORIENTED_EDGE('',*,*,#196,.T.);
#224=ORIENTED_EDGE('',*,*,#197,.T.);
#225=ORIENTED_EDGE('',*,*,#198,.F.);
#226=ORIENTED_EDGE('',*,*,#197,.F.);
#227=ORIENTED_EDGE('',*,*,#199,.T.);
#228=ORIENTED_EDGE('',*,*,#196,.F.);
#229=ORIENTED_EDGE('',*,*,#200,.T.);
#230=ORIENTED_EDGE('',*,*,#201,.T.);
#231=ORIENTED_EDGE('',*,*,#202,.T.);
#232=ORIENTED_EDGE('',*,*,#200,.F.);
#233=ORIENTED_EDGE('',*,*,#194,.T.);
#234=ORIENTED_EDGE('',*,*,#201,.F.);
#235=ORIENTED_EDGE('',*,*,#203,.T.);
#236=ORIENTED_EDGE('',*,*,#204,.T.);
#237=ORIENTED_EDGE('',*,*,#205,.F.);
#238=ORIENTED_EDGE('',*,*,#203,.F.);
#239=ORIENTED_EDGE('',*,*,#202,.F.);
#240=ORIENTED_EDGE('',*,*,#206,.T.);
#241=ORIENTED_EDGE('',*,*,#207,.T.);
#242=ORIENTED_EDGE('',*,*,#208,.T.);
#243=ORIENTED_EDGE('',*,*,#204,.F.);
#244=ORIENTED_EDGE('',*,*,#198,.T.);
#245=ORIENTED_EDGE('',*,*,#205,.T.);
#246=ORIENTED_EDGE('',*,*,#209,.T.);
#247=ORIENTED_EDGE('',*,*,#210,.T.);
#248=ORIENTED_EDGE('',*,*,#211,.T.);
#249=ORIENTED_EDGE('',*,*,#209,.F.);
#250=ORIENTED_EDGE('',*,*,#195,.T.);
#251=ORIENTED_EDGE('',*,*,#210,.F.);
#252=ORIENTED_EDGE('',*,*,#212,.T.);
#253=ORIENTED_EDGE('',*,*,#213,.T.);
#254=ORIENTED_EDGE('',*,*,#211,.F.);
#255=ORIENTED_EDGE('',*,*,#212,.F.);
#256=ORIENTED_EDGE('',*,*,#214,.F.);
#257=ORIENTED_EDGE('',*,*,#213,.F.);
#258=ORIENTED_EDGE('',*,*,#215,.T.);
#259=ORIENTED_EDGE('',*,*,#216,.T.);
#260=ORIENTED_EDGE('',*,*,#214,.T.);
#261=ORIENTED_EDGE('',*,*,#215,.F.);
#262=ORIENTED_EDGE('',*,*,#217,.F.);
#263=ORIENTED_EDGE('',*,*,#216,.F.);
#264=ORIENTED_EDGE('',*,*,#218,.T.);
#265=ORIENTED_EDGE('',*,*,#208,.F.);
#266=ORIENTED_EDGE('',*,*,#218,.F.);
#267=ORIENTED_EDGE('',*,*,#219,.T.);
#268=ORIENTED_EDGE('',*,*,#207,.F.);
#269=ORIENTED_EDGE('',*,*,#219,.F.);
#270=ORIENTED_EDGE('',*,*,#220,.T.);
#271=ORIENTED_EDGE('',*,*,#206,.F.);
#272=ORIENTED_EDGE('',*,*,#220,.F.);
#273=ORIENTED_EDGE('',*,*,#199,.F.);
#274=ORIENTED_EDGE('',*,*,#217,.T.);
#275=CYLINDRICAL_SURFACE('',#314,4.4585);
#276=CYLINDRICAL_SURFACE('',#322,10.);
#277=CYLINDRICAL_SURFACE('',#327,6.);
#278=CYLINDRICAL_SURFACE('',#333,17.);
#279=CYLINDRICAL_SURFACE('',#343,7.);
#280=CYLINDRICAL_SURFACE('',#356,11.);
#281=CYLINDRICAL_SURFACE('',#360,1.2295);
#282=CYLINDRICAL_SURFACE('',#363,1.2295);
#283=CYLINDRICAL_SURFACE('',#366,1.2295);
#284=ADVANCED_FACE('',(#64,#32),#275,.F.);
#285=ADVANCED_FACE('',(#65,#33),#31,.F.);
#286=ADVANCED_FACE('',(#66,#34),#25,.T.);
#287=ADVANCED_FACE('',(#67,#35),#276,.T.);
#288=ADVANCED_FACE('',(#68,#36),#14,.T.);
#289=ADVANCED_FACE('',(#69,#37),#277,.T.);
#290=ADVANCED_FACE('',(#38,#39),#26,.T.);
#291=ADVANCED_FACE('',(#70,#40),#15,.T.);
#292=ADVANCED_FACE('',(#71,#41),#278,.T.);
#293=ADVANCED_FACE('',(#42,#43,#44,#45,#46),#27,.T.);
#294=ADVANCED_FACE('',(#72,#47),#16,.T.);
#295=ADVANCED_FACE('',(#73,#48),#17,.T.);
#296=ADVANCED_FACE('',(#74,#49),#279,.T.);
#297=ADVANCED_FACE('',(#50,#51),#28,.T.);
#298=ADVANCED_FACE('',(#75,#52),#18,.T.);
#299=ADVANCED_FACE('',(#53,#54),#29,.F.);
#300=ADVANCED_FACE('',(#76,#55),#19,.T.);
#301=ADVANCED_FACE('',(#77,#56),#20,.T.);
#302=ADVANCED_FACE('',(#57,#58),#30,.T.);
#303=ADVANCED_FACE('',(#78,#59),#280,.T.);
#304=ADVANCED_FACE('',(#79),#21,.F.);
#305=ADVANCED_FACE('',(#80,#60),#281,.F.);
#306=ADVANCED_FACE('',(#81),#22,.F.);
#307=ADVANCED_FACE('',(#82,#61),#282,.F.);
#308=ADVANCED_FACE('',(#83),#23,.F.);
#309=ADVANCED_FACE('',(#84,#62),#283,.F.);
#310=ADVANCED_FACE('',(#85,#63),#24,.T.);
#311=CLOSED_SHELL('',(#284,#285,#286,#287,#288,#289,#290,#291,#292,#293,
#294,#295,#296,#297,#298,#299,#300,#301,#302,#303,#304,#305,#306,#307,#308,
#309,#310));
#312=MANIFOLD_SOLID_BREP('Volumenk\X\F6rper1',#311);
#313=AXIS2_PLACEMENT_3D('placement',#478,#368,#369);
#314=AXIS2_PLACEMENT_3D('',#479,#370,#371);
#315=AXIS2_PLACEMENT_3D('',#481,#372,#373);
#316=AXIS2_PLACEMENT_3D('',#483,#374,#375);
#317=AXIS2_PLACEMENT_3D('',#484,#376,#377);
#318=AXIS2_PLACEMENT_3D('',#486,#378,#379);
#319=AXIS2_PLACEMENT_3D('',#488,#380,#381);
#320=AXIS2_PLACEMENT_3D('',#489,#382,#383);
#321=AXIS2_PLACEMENT_3D('',#491,#384,#385);
#322=AXIS2_PLACEMENT_3D('',#492,#386,#387);
#323=AXIS2_PLACEMENT_3D('',#494,#388,#389);
#324=AXIS2_PLACEMENT_3D('',#495,#390,#391);
#325=AXIS2_PLACEMENT_3D('',#497,#392,#393);
#326=AXIS2_PLACEMENT_3D('',#499,#394,#395);
#327=AXIS2_PLACEMENT_3D('',#500,#396,#397);
#328=AXIS2_PLACEMENT_3D('',#502,#398,#399);
#329=AXIS2_PLACEMENT_3D('',#503,#400,#401);
#330=AXIS2_PLACEMENT_3D('',#504,#402,#403);
#331=AXIS2_PLACEMENT_3D('',#506,#404,#405);
#332=AXIS2_PLACEMENT_3D('',#508,#406,#407);
#333=AXIS2_PLACEMENT_3D('',#509,#408,#409);
#334=AXIS2_PLACEMENT_3D('',#511,#410,#411);
#335=AXIS2_PLACEMENT_3D('',#512,#412,#413);
#336=AXIS2_PLACEMENT_3D('',#514,#414,#415);
#337=AXIS2_PLACEMENT_3D('',#516,#416,#417);
#338=AXIS2_PLACEMENT_3D('',#518,#418,#419);
#339=AXIS2_PLACEMENT_3D('',#519,#420,#421);
#340=AXIS2_PLACEMENT_3D('',#520,#422,#423);
#341=AXIS2_PLACEMENT_3D('',#522,#424,#425);
#342=AXIS2_PLACEMENT_3D('',#524,#426,#427);
#343=AXIS2_PLACEMENT_3D('',#525,#428,#429);
#344=AXIS2_PLACEMENT_3D('',#527,#430,#431);
#345=AXIS2_PLACEMENT_3D('',#528,#432,#433);
#346=AXIS2_PLACEMENT_3D('',#529,#434,#435);
#347=AXIS2_PLACEMENT_3D('',#531,#436,#437);
#348=AXIS2_PLACEMENT_3D('',#533,#438,#439);
#349=AXIS2_PLACEMENT_3D('',#534,#440,#441);
#350=AXIS2_PLACEMENT_3D('',#535,#442,#443);
#351=AXIS2_PLACEMENT_3D('',#537,#444,#445);
#352=AXIS2_PLACEMENT_3D('',#538,#446,#447);
#353=AXIS2_PLACEMENT_3D('',#540,#448,#449);
#354=AXIS2_PLACEMENT_3D('',#542,#450,#451);
#355=AXIS2_PLACEMENT_3D('',#543,#452,#453);
#356=AXIS2_PLACEMENT_3D('',#544,#454,#455);
#357=AXIS2_PLACEMENT_3D('',#546,#456,#457);
#358=AXIS2_PLACEMENT_3D('',#547,#458,#459);
#359=AXIS2_PLACEMENT_3D('',#549,#460,#461);
#360=AXIS2_PLACEMENT_3D('',#550,#462,#463);
#361=AXIS2_PLACEMENT_3D('',#551,#464,#465);
#362=AXIS2_PLACEMENT_3D('',#553,#466,#467);
#363=AXIS2_PLACEMENT_3D('',#554,#468,#469);
#364=AXIS2_PLACEMENT_3D('',#555,#470,#471);
#365=AXIS2_PLACEMENT_3D('',#557,#472,#473);
#366=AXIS2_PLACEMENT_3D('',#558,#474,#475);
#367=AXIS2_PLACEMENT_3D('',#559,#476,#477);
#368=DIRECTION('axis',(0.,0.,1.));
#369=DIRECTION('refdir',(1.,0.,0.));
#370=DIRECTION('center_axis',(-1.,-1.1199965164169E-016,0.));
#371=DIRECTION('ref_axis',(0.,0.,1.));
#372=DIRECTION('center_axis',(-1.,-1.1199965164169E-016,0.));
#373=DIRECTION('ref_axis',(0.,0.,1.));
#374=DIRECTION('center_axis',(1.,1.1199965164169E-016,0.));
#375=DIRECTION('ref_axis',(0.,0.,1.));
#376=DIRECTION('center_axis',(1.,1.1199965164169E-016,0.));
#377=DIRECTION('ref_axis',(0.,0.,-1.));
#378=DIRECTION('center_axis',(1.,1.1199965164169E-016,0.));
#379=DIRECTION('ref_axis',(1.11022302462516E-016,-1.,1.22464679914735E-016));
#380=DIRECTION('center_axis',(-1.,-1.1199965164169E-016,0.));
#381=DIRECTION('ref_axis',(1.1199965164169E-016,-1.,1.22464679914735E-016));
#382=DIRECTION('center_axis',(-1.,-1.1199965164169E-016,0.));
#383=DIRECTION('ref_axis',(0.,0.,1.));
#384=DIRECTION('center_axis',(1.,1.1199965164169E-016,0.));
#385=DIRECTION('ref_axis',(1.1199965164169E-016,-1.,0.));
#386=DIRECTION('center_axis',(1.,1.1199965164169E-016,0.));
#387=DIRECTION('ref_axis',(0.,1.,0.));
#388=DIRECTION('center_axis',(1.,1.1199965164169E-016,0.));
#389=DIRECTION('ref_axis',(0.,1.,0.));
#390=DIRECTION('center_axis',(-1.,-1.1199965164169E-016,0.));
#391=DIRECTION('ref_axis',(5.35650507851561E-017,-1.,0.));
#392=DIRECTION('center_axis',(1.,1.1199965164169E-016,0.));
#393=DIRECTION('ref_axis',(0.,-1.,0.));
#394=DIRECTION('center_axis',(-1.,-1.1199965164169E-016,0.));
#395=DIRECTION('ref_axis',(1.1199965164169E-016,-1.,0.));
#396=DIRECTION('center_axis',(1.,1.1199965164169E-016,0.));
#397=DIRECTION('ref_axis',(0.,1.,0.));
#398=DIRECTION('center_axis',(1.,1.1199965164169E-016,0.));
#399=DIRECTION('ref_axis',(0.,1.,0.));
#400=DIRECTION('center_axis',(1.,1.1199965164169E-016,0.));
#401=DIRECTION('ref_axis',(0.,0.,-1.));
#402=DIRECTION('center_axis',(-1.,-1.11999651641691E-016,0.));
#403=DIRECTION('ref_axis',(5.51640075250115E-017,-1.,0.));
#404=DIRECTION('center_axis',(1.,1.1199965164169E-016,0.));
#405=DIRECTION('ref_axis',(0.,-1.,0.));
#406=DIRECTION('center_axis',(-1.,-1.1199965164169E-016,0.));
#407=DIRECTION('ref_axis',(1.1199965164169E-016,-1.,0.));
#408=DIRECTION('center_axis',(1.,1.1199965164169E-016,0.));
#409=DIRECTION('ref_axis',(0.,1.,0.));
#410=DIRECTION('center_axis',(-1.,-1.1199965164169E-016,0.));
#411=DIRECTION('ref_axis',(0.,-1.,0.));
#412=DIRECTION('center_axis',(1.,1.1199965164169E-016,0.));
#413=DIRECTION('ref_axis',(0.,0.,-1.));
#414=DIRECTION('center_axis',(-1.,-1.1199965164169E-016,0.));
#415=DIRECTION('ref_axis',(0.,0.,-1.));
#416=DIRECTION('center_axis',(-1.,-1.1199965164169E-016,0.));
#417=DIRECTION('ref_axis',(0.,0.866025403784439,0.5));
#418=DIRECTION('center_axis',(-1.,-1.1199965164169E-016,0.));
#419=DIRECTION('ref_axis',(0.,-0.866025403784438,0.5));
#420=DIRECTION('center_axis',(1.,1.11999651641689E-016,0.));
#421=DIRECTION('ref_axis',(5.51640075250115E-017,-1.,0.));
#422=DIRECTION('center_axis',(1.,1.1199965164169E-016,0.));
#423=DIRECTION('ref_axis',(0.,0.,-1.));
#424=DIRECTION('center_axis',(-1.,-1.1199965164169E-016,0.));
#425=DIRECTION('ref_axis',(0.,0.,-1.));
#426=DIRECTION('center_axis',(1.,1.1199965164169E-016,0.));
#427=DIRECTION('ref_axis',(0.,0.,-1.));
#428=DIRECTION('center_axis',(1.,1.1199965164169E-016,0.));
#429=DIRECTION('ref_axis',(0.,0.,-1.));
#430=DIRECTION('center_axis',(-1.,-1.1199965164169E-016,0.));
#431=DIRECTION('ref_axis',(0.,0.,-1.));
#432=DIRECTION('center_axis',(-1.,-1.1199965164169E-016,0.));
#433=DIRECTION('ref_axis',(0.,0.,1.));
#434=DIRECTION('center_axis',(1.,-7.46897283334003E-016,-1.50218216730064E-015));
#435=DIRECTION('ref_axis',(-5.48046430955315E-017,1.,3.12695991088181E-017));
#436=DIRECTION('center_axis',(1.,1.1199965164169E-016,0.));
#437=DIRECTION('ref_axis',(-1.1199965164169E-016,1.,0.));
#438=DIRECTION('center_axis',(-1.,0.,0.));
#439=DIRECTION('ref_axis',(0.,1.,6.12323399573677E-017));
#440=DIRECTION('center_axis',(1.,1.1199965164169E-016,0.));
#441=DIRECTION('ref_axis',(0.,0.,-1.));
#442=DIRECTION('center_axis',(1.,1.1199965164169E-016,0.));
#443=DIRECTION('ref_axis',(0.,1.,0.));
#444=DIRECTION('center_axis',(1.,1.1199965164169E-016,0.));
#445=DIRECTION('ref_axis',(0.,1.,0.));
#446=DIRECTION('center_axis',(1.,1.1199965164169E-016,0.));
#447=DIRECTION('ref_axis',(5.33331674484238E-017,-1.,0.));
#448=DIRECTION('center_axis',(1.,1.1199965164169E-016,0.));
#449=DIRECTION('ref_axis',(1.1199965164169E-016,-1.,0.));
#450=DIRECTION('center_axis',(-1.,-1.1199965164169E-016,0.));
#451=DIRECTION('ref_axis',(0.,-1.,0.));
#452=DIRECTION('center_axis',(-1.,-1.1199965164169E-016,0.));
#453=DIRECTION('ref_axis',(0.,0.,1.));
#454=DIRECTION('center_axis',(1.,1.1199965164169E-016,0.));
#455=DIRECTION('ref_axis',(0.,1.,0.));
#456=DIRECTION('center_axis',(1.,1.1199965164169E-016,0.));
#457=DIRECTION('ref_axis',(0.,1.,0.));
#458=DIRECTION('center_axis',(1.,-5.59998258208451E-017,-9.6994543536711E-017));
#459=DIRECTION('ref_axis',(0.,-0.866025403784438,0.5));
#460=DIRECTION('center_axis',(1.,-5.59998258208451E-017,-9.6994543536711E-017));
#461=DIRECTION('ref_axis',(0.,-0.866025403784438,0.5));
#462=DIRECTION('center_axis',(1.,-5.59998258208451E-017,-9.6994543536711E-017));
#463=DIRECTION('ref_axis',(0.,-0.866025403784438,0.5));
#464=DIRECTION('center_axis',(1.,-5.5999825820845E-017,9.69945435367111E-017));
#465=DIRECTION('ref_axis',(0.,0.866025403784439,0.5));
#466=DIRECTION('center_axis',(1.,-5.5999825820845E-017,9.69945435367111E-017));
#467=DIRECTION('ref_axis',(0.,0.866025403784439,0.5));
#468=DIRECTION('center_axis',(1.,-5.5999825820845E-017,9.69945435367111E-017));
#469=DIRECTION('ref_axis',(0.,0.866025403784439,0.5));
#470=DIRECTION('center_axis',(1.,1.1199965164169E-016,0.));
#471=DIRECTION('ref_axis',(0.,0.,-1.));
#472=DIRECTION('center_axis',(1.,1.1199965164169E-016,0.));
#473=DIRECTION('ref_axis',(0.,0.,-1.));
#474=DIRECTION('center_axis',(1.,1.1199965164169E-016,0.));
#475=DIRECTION('ref_axis',(0.,0.,-1.));
#476=DIRECTION('center_axis',(-1.,-1.1199965164169E-016,0.));
#477=DIRECTION('ref_axis',(0.,1.,0.));
#478=CARTESIAN_POINT('',(0.,0.,0.));
#479=CARTESIAN_POINT('Origin',(49.0653576834802,8.51176569172484E-015,0.));
#480=CARTESIAN_POINT('',(37.5,6.67044088466367E-015,-4.4585));
#481=CARTESIAN_POINT('Origin',(37.5,7.21644966006352E-015,0.));
#482=CARTESIAN_POINT('',(-56.6709958856069,-3.33066907387547E-015,4.4585));
#483=CARTESIAN_POINT('Origin',(-56.6709958856069,-3.33066907387547E-015,
0.));
#484=CARTESIAN_POINT('Origin',(22.1,5.49165502478149E-015,0.));
#485=CARTESIAN_POINT('',(22.1,10.,0.));
#486=CARTESIAN_POINT('Origin',(22.1,5.49165502478149E-015,0.));
#487=CARTESIAN_POINT('',(22.5,10.4,-2.54726534222649E-015));
#488=CARTESIAN_POINT('Origin',(22.5,5.53645488543817E-015,0.));
#489=CARTESIAN_POINT('Origin',(22.5,13.5,0.));
#490=CARTESIAN_POINT('',(22.5,16.5,2.02066721859313E-015));
#491=CARTESIAN_POINT('Origin',(22.5,5.53645488543817E-015,0.));
#492=CARTESIAN_POINT('Origin',(21.9,5.46925509445315E-015,0.));
#493=CARTESIAN_POINT('',(21.3,10.,0.));
#494=CARTESIAN_POINT('Origin',(21.3,5.40205530346814E-015,0.));
#495=CARTESIAN_POINT('Origin',(37.25,7.18844974715309E-015,0.));
#496=CARTESIAN_POINT('',(37.,6.00000000000001,7.34788079488412E-016));
#497=CARTESIAN_POINT('Origin',(37.,7.16044983424267E-015,0.));
#498=CARTESIAN_POINT('',(37.5,5.50000000000001,-6.73555739531044E-016));
#499=CARTESIAN_POINT('Origin',(37.5,7.21644966006352E-015,0.));
#500=CARTESIAN_POINT('Origin',(36.,7.04845018260098E-015,0.));
#501=CARTESIAN_POINT('',(34.5,6.00000000000001,0.));
#502=CARTESIAN_POINT('Origin',(34.5,6.88045070513845E-015,0.));
#503=CARTESIAN_POINT('Origin',(37.5,3.00000000000001,0.));
#504=CARTESIAN_POINT('Origin',(34.25,6.85245079222803E-015,0.));
#505=CARTESIAN_POINT('',(34.,17.,2.0818995585505E-015));
#506=CARTESIAN_POINT('Origin',(34.,6.8244508793176E-015,0.));
#507=CARTESIAN_POINT('',(34.5,16.5,-2.02066721859313E-015));
#508=CARTESIAN_POINT('Origin',(34.5,6.88045070513845E-015,0.));
#509=CARTESIAN_POINT('Origin',(28.5,6.20845279528831E-015,0.));
#510=CARTESIAN_POINT('',(23.,17.,-2.0818995585505E-015));
#511=CARTESIAN_POINT('Origin',(23.,5.59245471125901E-015,0.));
#512=CARTESIAN_POINT('Origin',(34.5,11.5,0.));
#513=CARTESIAN_POINT('',(34.5,-8.99999999999999,-1.2295));
#514=CARTESIAN_POINT('Origin',(34.5,-8.99999999999999,0.));
#515=CARTESIAN_POINT('',(34.5,5.56477823395297,-7.17947863405995));
#516=CARTESIAN_POINT('Origin',(34.5,4.50000000000001,-7.79422863405995));
#517=CARTESIAN_POINT('',(34.5,3.43522176604705,8.40897863405995));
#518=CARTESIAN_POINT('Origin',(34.5,4.50000000000001,7.79422863405995));
#519=CARTESIAN_POINT('Origin',(22.75,5.56445479834859E-015,0.));
#520=CARTESIAN_POINT('Origin',(-56.4209958856068,-3.30266916096505E-015,
0.));
#521=CARTESIAN_POINT('',(-56.1709958856069,-2.41741648865148E-015,7.));
#522=CARTESIAN_POINT('Origin',(-56.1709958856069,-3.27466924805463E-015,
0.));
#523=CARTESIAN_POINT('',(-56.6709958856069,-4.12668949332125E-015,6.5));
#524=CARTESIAN_POINT('Origin',(-56.6709958856069,-3.33066907387547E-015,
0.));
#525=CARTESIAN_POINT('Origin',(-56.6709958856069,-3.33066907387547E-015,
0.));
#526=CARTESIAN_POINT('',(-54.6709958856069,-2.24941701118894E-015,7.));
#527=CARTESIAN_POINT('Origin',(-54.6709958856069,-3.10666977059209E-015,
0.));
#528=CARTESIAN_POINT('Origin',(-56.6709958856069,3.65,0.));
#529=CARTESIAN_POINT('Origin',(-54.5210426669504,-3.21866942223378E-015,
-2.25257050995048E-016));
#530=CARTESIAN_POINT('',(-54.6709958856069,-7.04996171205752,-8.63371304478264E-016));
#531=CARTESIAN_POINT('Origin',(-54.6709958856069,-3.10666977059209E-015,
0.));
#532=CARTESIAN_POINT('',(-54.371089448294,-7.35745363159013,0.));
#533=CARTESIAN_POINT('Origin',(-54.371089448294,-3.33066907387547E-015,
-4.50514101990096E-016));
#534=CARTESIAN_POINT('Origin',(-54.6709958856069,-3.10666977059209E-015,
0.));
#535=CARTESIAN_POINT('Origin',(-22.3466260928034,5.1364838573906E-016,0.));
#536=CARTESIAN_POINT('',(11.9777437,9.0149042801438,0.));
#537=CARTESIAN_POINT('Origin',(11.9777437,4.35796584535359E-015,0.));
#538=CARTESIAN_POINT('Origin',(12.4777437,4.41396567117444E-015,0.));
#539=CARTESIAN_POINT('',(11.9777437,10.,1.22464679914735E-015));
#540=CARTESIAN_POINT('Origin',(11.9777437,4.35796584535359E-015,0.));
#541=CARTESIAN_POINT('',(12.9777437,11.,-1.34711147906209E-015));
#542=CARTESIAN_POINT('Origin',(12.9777437,4.46996549699528E-015,0.));
#543=CARTESIAN_POINT('Origin',(11.9777437,10.0074521400719,0.));
#544=CARTESIAN_POINT('Origin',(16.13887185,4.82401074859002E-015,0.));
#545=CARTESIAN_POINT('',(20.3,11.,0.));
#546=CARTESIAN_POINT('Origin',(20.3,5.29005565182645E-015,0.));
#547=CARTESIAN_POINT('Origin',(23.1306209344528,4.50000000000001,7.79422863405995));
#548=CARTESIAN_POINT('',(23.5,3.43522176604704,8.40897863405995));
#549=CARTESIAN_POINT('Origin',(23.5,4.50000000000001,7.79422863405995));
#550=CARTESIAN_POINT('Origin',(29.,4.50000000000001,7.79422863405995));
#551=CARTESIAN_POINT('Origin',(23.1306209344528,4.50000000000001,-7.79422863405995));
#552=CARTESIAN_POINT('',(23.5,5.56477823395297,-7.17947863405995));
#553=CARTESIAN_POINT('Origin',(23.5,4.50000000000001,-7.79422863405995));
#554=CARTESIAN_POINT('Origin',(29.,4.50000000000001,-7.79422863405995));
#555=CARTESIAN_POINT('Origin',(23.1306209344528,-8.99999999999999,0.));
#556=CARTESIAN_POINT('',(23.5,-8.99999999999999,-1.2295));
#557=CARTESIAN_POINT('Origin',(23.5,-8.99999999999999,0.));
#558=CARTESIAN_POINT('Origin',(29.,-8.99999999999999,0.));
#559=CARTESIAN_POINT('Origin',(20.8,5.3460554776473E-015,0.));
#560=UNCERTAINTY_MEASURE_WITH_UNIT(LENGTH_MEASURE(0.01),#564,
'DISTANCE_ACCURACY_VALUE',
'Maximum model space distance between geometric entities at asserted c
onnectivities');
#561=UNCERTAINTY_MEASURE_WITH_UNIT(LENGTH_MEASURE(1.E-006),#564,
'DISTANCE_ACCURACY_VALUE',
'Maximum model space distance between geometric entities at asserted c
onnectivities');
#562=(
GEOMETRIC_REPRESENTATION_CONTEXT(3)
GLOBAL_UNCERTAINTY_ASSIGNED_CONTEXT((#560))
GLOBAL_UNIT_ASSIGNED_CONTEXT((#564,#567,#565))
REPRESENTATION_CONTEXT('','3D')
);
#563=(
GEOMETRIC_REPRESENTATION_CONTEXT(3)
GLOBAL_UNCERTAINTY_ASSIGNED_CONTEXT((#561))
GLOBAL_UNIT_ASSIGNED_CONTEXT((#564,#567,#565))
REPRESENTATION_CONTEXT('','3D')
);
#564=(
LENGTH_UNIT()
NAMED_UNIT(*)
SI_UNIT(.MILLI.,.METRE.)
);
#565=(
NAMED_UNIT(*)
SI_UNIT($,.STERADIAN.)
SOLID_ANGLE_UNIT()
);
#566=DIMENSIONAL_EXPONENTS(0.,0.,0.,0.,0.,0.,0.);
#567=(
CONVERSION_BASED_UNIT('degree',#569)
NAMED_UNIT(#566)
PLANE_ANGLE_UNIT()
);
#568=(
NAMED_UNIT(*)
PLANE_ANGLE_UNIT()
SI_UNIT($,.RADIAN.)
);
#569=PLANE_ANGLE_MEASURE_WITH_UNIT(PLANE_ANGLE_MEASURE(0.01745329252),#568);
#570=SHAPE_DEFINITION_REPRESENTATION(#571,#572);
#571=PRODUCT_DEFINITION_SHAPE('',$,#574);
#572=SHAPE_REPRESENTATION('',(#313),#562);
#573=DESIGN_CONTEXT('part definition',#578,'design');
#574=PRODUCT_DEFINITION('DBF63_99-01a Aufnahme MK2',
'DBF63_99-01a Aufnahme MK2',#575,#573);
#575=PRODUCT_DEFINITION_FORMATION('',$,#580);
#576=PRODUCT_RELATED_PRODUCT_CATEGORY('DBF63_99-01a Aufnahme MK2',
'DBF63_99-01a Aufnahme MK2',(#580));
#577=APPLICATION_PROTOCOL_DEFINITION('international standard',
'ap203_configuration_controlled_3d_design_of_mechanical_parts_and_asse
mblies_mim_lf',2004,#578);
#578=APPLICATION_CONTEXT(
'Configuration Controlled 3D Design of Mechanical Parts and Assemblies');
#579=MECHANICAL_CONTEXT('part definition',#578,'mechanical');
#580=PRODUCT('DBF63_99-01a Aufnahme MK2','DBF63_99-01a Aufnahme MK2',$,
(#579));
#581=PRESENTATION_STYLE_ASSIGNMENT((#582));
#582=SURFACE_STYLE_USAGE(.BOTH.,#583);
#583=SURFACE_SIDE_STYLE($,(#584));
#584=SURFACE_STYLE_FILL_AREA(#585);
#585=FILL_AREA_STYLE($,(#586));
#586=FILL_AREA_STYLE_COLOUR($,#587);
#587=COLOUR_RGB('',0.631372549019608,0.784313725490196,0.603921568627451);
ENDSEC;
END-ISO-10303-21;
