ISO-10303-21;
HEADER;
/* Generated by software containing ST-Developer
 * from STEP Tools, Inc. (www.steptools.com) 
 */

FILE_DESCRIPTION(
/* description */ ('Aufnahme'),
/* implementation_level */ '2;1');

FILE_NAME(
/* name */ 
'Y:\\Futter\\Synchronisation Ordner\\(2) Dateien f\X\FCr Webseite\\Sta
ndardaufnahme\\DBF160_99-00a Aufnahme.stp',
/* time_stamp */ '2022-01-29T20:36:45+01:00',
/* author */ ('MKoch'),
/* organization */ (''),
/* preprocessor_version */ 'ST-DEVELOPER v15.2',
/* originating_system */ 'Autodesk Inventor 2014',
/* authorisation */ '');

FILE_SCHEMA (('CONFIG_CONTROL_DESIGN'));
ENDSEC;

DATA;
#10=MECHANICAL_DESIGN_GEOMETRIC_PRESENTATION_REPRESENTATION('',(#13),#371);
#11=SHAPE_REPRESENTATION_RELATIONSHIP('SRR','None',#380,#12);
#12=ADVANCED_BREP_SHAPE_REPRESENTATION($,(#209),#370);
#13=STYLED_ITEM('',(#389),#209);
#14=PLANE('',#229);
#15=PLANE('',#237);
#16=PLANE('',#243);
#17=PLANE('',#244);
#18=CONICAL_SURFACE('',#220,1.66175,59.);
#19=CONICAL_SURFACE('',#224,12.,45.);
#20=CONICAL_SURFACE('',#231,33.75,45.0000000000008);
#21=CONICAL_SURFACE('',#235,33.75,45.);
#22=CONICAL_SURFACE('',#241,13.75,45.0000000000005);
#23=FACE_BOUND('',#60,.T.);
#24=FACE_BOUND('',#62,.T.);
#25=FACE_BOUND('',#64,.T.);
#26=FACE_BOUND('',#67,.T.);
#27=FACE_BOUND('',#69,.T.);
#28=FACE_BOUND('',#71,.T.);
#29=FACE_BOUND('',#72,.T.);
#30=FACE_BOUND('',#73,.T.);
#31=FACE_BOUND('',#74,.T.);
#32=FACE_BOUND('',#75,.T.);
#33=FACE_BOUND('',#76,.T.);
#34=FACE_BOUND('',#78,.T.);
#35=FACE_BOUND('',#80,.T.);
#36=FACE_BOUND('',#82,.T.);
#37=FACE_BOUND('',#83,.T.);
#38=FACE_BOUND('',#84,.T.);
#39=FACE_BOUND('',#85,.T.);
#40=FACE_BOUND('',#86,.T.);
#41=FACE_BOUND('',#87,.T.);
#42=FACE_BOUND('',#89,.T.);
#43=FACE_BOUND('',#91,.T.);
#44=FACE_BOUND('',#93,.T.);
#45=FACE_BOUND('',#94,.T.);
#46=FACE_OUTER_BOUND('',#59,.T.);
#47=FACE_OUTER_BOUND('',#61,.T.);
#48=FACE_OUTER_BOUND('',#63,.T.);
#49=FACE_OUTER_BOUND('',#65,.T.);
#50=FACE_OUTER_BOUND('',#66,.T.);
#51=FACE_OUTER_BOUND('',#68,.T.);
#52=FACE_OUTER_BOUND('',#70,.T.);
#53=FACE_OUTER_BOUND('',#77,.T.);
#54=FACE_OUTER_BOUND('',#79,.T.);
#55=FACE_OUTER_BOUND('',#81,.T.);
#56=FACE_OUTER_BOUND('',#88,.T.);
#57=FACE_OUTER_BOUND('',#90,.T.);
#58=FACE_OUTER_BOUND('',#92,.T.);
#59=EDGE_LOOP('',(#149));
#60=EDGE_LOOP('',(#150));
#61=EDGE_LOOP('',(#151));
#62=EDGE_LOOP('',(#152));
#63=EDGE_LOOP('',(#153));
#64=EDGE_LOOP('',(#154));
#65=EDGE_LOOP('',(#155));
#66=EDGE_LOOP('',(#156));
#67=EDGE_LOOP('',(#157));
#68=EDGE_LOOP('',(#158));
#69=EDGE_LOOP('',(#159));
#70=EDGE_LOOP('',(#160));
#71=EDGE_LOOP('',(#161));
#72=EDGE_LOOP('',(#162));
#73=EDGE_LOOP('',(#163));
#74=EDGE_LOOP('',(#164));
#75=EDGE_LOOP('',(#165));
#76=EDGE_LOOP('',(#166));
#77=EDGE_LOOP('',(#167));
#78=EDGE_LOOP('',(#168));
#79=EDGE_LOOP('',(#169));
#80=EDGE_LOOP('',(#170));
#81=EDGE_LOOP('',(#171));
#82=EDGE_LOOP('',(#172));
#83=EDGE_LOOP('',(#173));
#84=EDGE_LOOP('',(#174));
#85=EDGE_LOOP('',(#175));
#86=EDGE_LOOP('',(#176));
#87=EDGE_LOOP('',(#177));
#88=EDGE_LOOP('',(#178));
#89=EDGE_LOOP('',(#179));
#90=EDGE_LOOP('',(#180));
#91=EDGE_LOOP('',(#181));
#92=EDGE_LOOP('',(#182));
#93=EDGE_LOOP('',(#183));
#94=EDGE_LOOP('',(#184));
#95=CIRCLE('',#212,2.4585);
#96=CIRCLE('',#213,2.4585);
#97=CIRCLE('',#215,2.4585);
#98=CIRCLE('',#216,2.4585);
#99=CIRCLE('',#218,2.4585);
#100=CIRCLE('',#219,2.4585);
#101=CIRCLE('',#221,3.3235);
#102=CIRCLE('',#223,3.3235);
#103=CIRCLE('',#225,12.5);
#104=CIRCLE('',#226,11.5);
#105=CIRCLE('',#228,12.5);
#106=CIRCLE('',#230,33.5);
#107=CIRCLE('',#232,34.);
#108=CIRCLE('',#234,34.);
#109=CIRCLE('',#236,33.5);
#110=CIRCLE('',#238,14.);
#111=CIRCLE('',#240,14.);
#112=CIRCLE('',#242,13.5);
#113=VERTEX_POINT('',#317);
#114=VERTEX_POINT('',#319);
#115=VERTEX_POINT('',#322);
#116=VERTEX_POINT('',#324);
#117=VERTEX_POINT('',#327);
#118=VERTEX_POINT('',#329);
#119=VERTEX_POINT('',#332);
#120=VERTEX_POINT('',#335);
#121=VERTEX_POINT('',#338);
#122=VERTEX_POINT('',#340);
#123=VERTEX_POINT('',#343);
#124=VERTEX_POINT('',#346);
#125=VERTEX_POINT('',#349);
#126=VERTEX_POINT('',#352);
#127=VERTEX_POINT('',#355);
#128=VERTEX_POINT('',#358);
#129=VERTEX_POINT('',#361);
#130=VERTEX_POINT('',#364);
#131=EDGE_CURVE('',#113,#113,#95,.T.);
#132=EDGE_CURVE('',#114,#114,#96,.T.);
#133=EDGE_CURVE('',#115,#115,#97,.T.);
#134=EDGE_CURVE('',#116,#116,#98,.T.);
#135=EDGE_CURVE('',#117,#117,#99,.T.);
#136=EDGE_CURVE('',#118,#118,#100,.T.);
#137=EDGE_CURVE('',#119,#119,#101,.T.);
#138=EDGE_CURVE('',#120,#120,#102,.T.);
#139=EDGE_CURVE('',#121,#121,#103,.T.);
#140=EDGE_CURVE('',#122,#122,#104,.T.);
#141=EDGE_CURVE('',#123,#123,#105,.T.);
#142=EDGE_CURVE('',#124,#124,#106,.T.);
#143=EDGE_CURVE('',#125,#125,#107,.T.);
#144=EDGE_CURVE('',#126,#126,#108,.T.);
#145=EDGE_CURVE('',#127,#127,#109,.T.);
#146=EDGE_CURVE('',#128,#128,#110,.T.);
#147=EDGE_CURVE('',#129,#129,#111,.T.);
#148=EDGE_CURVE('',#130,#130,#112,.T.);
#149=ORIENTED_EDGE('',*,*,#131,.F.);
#150=ORIENTED_EDGE('',*,*,#132,.F.);
#151=ORIENTED_EDGE('',*,*,#133,.F.);
#152=ORIENTED_EDGE('',*,*,#134,.F.);
#153=ORIENTED_EDGE('',*,*,#135,.F.);
#154=ORIENTED_EDGE('',*,*,#136,.F.);
#155=ORIENTED_EDGE('',*,*,#137,.T.);
#156=ORIENTED_EDGE('',*,*,#138,.F.);
#157=ORIENTED_EDGE('',*,*,#137,.F.);
#158=ORIENTED_EDGE('',*,*,#139,.F.);
#159=ORIENTED_EDGE('',*,*,#140,.T.);
#160=ORIENTED_EDGE('',*,*,#141,.F.);
#161=ORIENTED_EDGE('',*,*,#139,.T.);
#162=ORIENTED_EDGE('',*,*,#131,.T.);
#163=ORIENTED_EDGE('',*,*,#133,.T.);
#164=ORIENTED_EDGE('',*,*,#135,.T.);
#165=ORIENTED_EDGE('',*,*,#142,.F.);
#166=ORIENTED_EDGE('',*,*,#141,.T.);
#167=ORIENTED_EDGE('',*,*,#143,.F.);
#168=ORIENTED_EDGE('',*,*,#142,.T.);
#169=ORIENTED_EDGE('',*,*,#144,.F.);
#170=ORIENTED_EDGE('',*,*,#143,.T.);
#171=ORIENTED_EDGE('',*,*,#145,.F.);
#172=ORIENTED_EDGE('',*,*,#144,.T.);
#173=ORIENTED_EDGE('',*,*,#132,.T.);
#174=ORIENTED_EDGE('',*,*,#134,.T.);
#175=ORIENTED_EDGE('',*,*,#136,.T.);
#176=ORIENTED_EDGE('',*,*,#146,.F.);
#177=ORIENTED_EDGE('',*,*,#145,.T.);
#178=ORIENTED_EDGE('',*,*,#147,.F.);
#179=ORIENTED_EDGE('',*,*,#146,.T.);
#180=ORIENTED_EDGE('',*,*,#148,.F.);
#181=ORIENTED_EDGE('',*,*,#147,.T.);
#182=ORIENTED_EDGE('',*,*,#148,.T.);
#183=ORIENTED_EDGE('',*,*,#138,.T.);
#184=ORIENTED_EDGE('',*,*,#140,.F.);
#185=CYLINDRICAL_SURFACE('',#211,2.4585);
#186=CYLINDRICAL_SURFACE('',#214,2.4585);
#187=CYLINDRICAL_SURFACE('',#217,2.4585);
#188=CYLINDRICAL_SURFACE('',#222,3.3235);
#189=CYLINDRICAL_SURFACE('',#227,12.5);
#190=CYLINDRICAL_SURFACE('',#233,34.);
#191=CYLINDRICAL_SURFACE('',#239,14.);
#192=ADVANCED_FACE('',(#46,#23),#185,.F.);
#193=ADVANCED_FACE('',(#47,#24),#186,.F.);
#194=ADVANCED_FACE('',(#48,#25),#187,.F.);
#195=ADVANCED_FACE('',(#49),#18,.F.);
#196=ADVANCED_FACE('',(#50,#26),#188,.F.);
#197=ADVANCED_FACE('',(#51,#27),#19,.T.);
#198=ADVANCED_FACE('',(#52,#28),#189,.T.);
#199=ADVANCED_FACE('',(#29,#30,#31,#32,#33),#14,.T.);
#200=ADVANCED_FACE('',(#53,#34),#20,.T.);
#201=ADVANCED_FACE('',(#54,#35),#190,.T.);
#202=ADVANCED_FACE('',(#55,#36),#21,.T.);
#203=ADVANCED_FACE('',(#37,#38,#39,#40,#41),#15,.T.);
#204=ADVANCED_FACE('',(#56,#42),#191,.T.);
#205=ADVANCED_FACE('',(#57,#43),#22,.T.);
#206=ADVANCED_FACE('',(#58),#16,.T.);
#207=ADVANCED_FACE('',(#44,#45),#17,.T.);
#208=CLOSED_SHELL('',(#192,#193,#194,#195,#196,#197,#198,#199,#200,#201,
#202,#203,#204,#205,#206,#207));
#209=MANIFOLD_SOLID_BREP('Volumenk\X\F6rper1',#208);
#210=AXIS2_PLACEMENT_3D('placement',#315,#245,#246);
#211=AXIS2_PLACEMENT_3D('',#316,#247,#248);
#212=AXIS2_PLACEMENT_3D('',#318,#249,#250);
#213=AXIS2_PLACEMENT_3D('',#320,#251,#252);
#214=AXIS2_PLACEMENT_3D('',#321,#253,#254);
#215=AXIS2_PLACEMENT_3D('',#323,#255,#256);
#216=AXIS2_PLACEMENT_3D('',#325,#257,#258);
#217=AXIS2_PLACEMENT_3D('',#326,#259,#260);
#218=AXIS2_PLACEMENT_3D('',#328,#261,#262);
#219=AXIS2_PLACEMENT_3D('',#330,#263,#264);
#220=AXIS2_PLACEMENT_3D('',#331,#265,#266);
#221=AXIS2_PLACEMENT_3D('',#333,#267,#268);
#222=AXIS2_PLACEMENT_3D('',#334,#269,#270);
#223=AXIS2_PLACEMENT_3D('',#336,#271,#272);
#224=AXIS2_PLACEMENT_3D('',#337,#273,#274);
#225=AXIS2_PLACEMENT_3D('',#339,#275,#276);
#226=AXIS2_PLACEMENT_3D('',#341,#277,#278);
#227=AXIS2_PLACEMENT_3D('',#342,#279,#280);
#228=AXIS2_PLACEMENT_3D('',#344,#281,#282);
#229=AXIS2_PLACEMENT_3D('',#345,#283,#284);
#230=AXIS2_PLACEMENT_3D('',#347,#285,#286);
#231=AXIS2_PLACEMENT_3D('',#348,#287,#288);
#232=AXIS2_PLACEMENT_3D('',#350,#289,#290);
#233=AXIS2_PLACEMENT_3D('',#351,#291,#292);
#234=AXIS2_PLACEMENT_3D('',#353,#293,#294);
#235=AXIS2_PLACEMENT_3D('',#354,#295,#296);
#236=AXIS2_PLACEMENT_3D('',#356,#297,#298);
#237=AXIS2_PLACEMENT_3D('',#357,#299,#300);
#238=AXIS2_PLACEMENT_3D('',#359,#301,#302);
#239=AXIS2_PLACEMENT_3D('',#360,#303,#304);
#240=AXIS2_PLACEMENT_3D('',#362,#305,#306);
#241=AXIS2_PLACEMENT_3D('',#363,#307,#308);
#242=AXIS2_PLACEMENT_3D('',#365,#309,#310);
#243=AXIS2_PLACEMENT_3D('',#366,#311,#312);
#244=AXIS2_PLACEMENT_3D('',#367,#313,#314);
#245=DIRECTION('axis',(0.,0.,1.));
#246=DIRECTION('refdir',(1.,0.,0.));
#247=DIRECTION('center_axis',(1.,-8.21730109605232E-034,0.));
#248=DIRECTION('ref_axis',(0.,0.,-1.));
#249=DIRECTION('center_axis',(1.,-8.21730109605232E-034,0.));
#250=DIRECTION('ref_axis',(0.,0.,-1.));
#251=DIRECTION('center_axis',(-1.,8.21730109605232E-034,0.));
#252=DIRECTION('ref_axis',(0.,0.,-1.));
#253=DIRECTION('center_axis',(1.,-8.21730109605232E-034,0.));
#254=DIRECTION('ref_axis',(0.,0.,-1.));
#255=DIRECTION('center_axis',(1.,-8.21730109605232E-034,0.));
#256=DIRECTION('ref_axis',(0.,0.,-1.));
#257=DIRECTION('center_axis',(-1.,8.21730109605232E-034,0.));
#258=DIRECTION('ref_axis',(0.,0.,-1.));
#259=DIRECTION('center_axis',(1.,-8.21730109605232E-034,0.));
#260=DIRECTION('ref_axis',(0.,0.,-1.));
#261=DIRECTION('center_axis',(1.,-8.21730109605232E-034,0.));
#262=DIRECTION('ref_axis',(0.,0.,-1.));
#263=DIRECTION('center_axis',(-1.,8.21730109605232E-034,0.));
#264=DIRECTION('ref_axis',(0.,0.,-1.));
#265=DIRECTION('center_axis',(-1.,8.21730109605232E-034,0.));
#266=DIRECTION('ref_axis',(0.,0.,1.));
#267=DIRECTION('center_axis',(-1.,8.21730109605232E-034,0.));
#268=DIRECTION('ref_axis',(0.,0.,1.));
#269=DIRECTION('center_axis',(-1.,8.21730109605232E-034,0.));
#270=DIRECTION('ref_axis',(0.,0.,1.));
#271=DIRECTION('center_axis',(1.,-8.21730109605232E-034,0.));
#272=DIRECTION('ref_axis',(0.,0.,1.));
#273=DIRECTION('center_axis',(1.,-8.21730109605232E-034,0.));
#274=DIRECTION('ref_axis',(0.,1.,0.));
#275=DIRECTION('center_axis',(1.,-8.21730109605232E-034,0.));
#276=DIRECTION('ref_axis',(0.,1.,0.));
#277=DIRECTION('center_axis',(1.,-8.21730109605232E-034,0.));
#278=DIRECTION('ref_axis',(0.,1.,0.));
#279=DIRECTION('center_axis',(1.,-8.21730109605232E-034,0.));
#280=DIRECTION('ref_axis',(0.,1.,0.));
#281=DIRECTION('center_axis',(1.,-8.21730109605232E-034,0.));
#282=DIRECTION('ref_axis',(0.,1.,0.));
#283=DIRECTION('center_axis',(-1.,8.21730109605232E-034,0.));
#284=DIRECTION('ref_axis',(0.,0.,1.));
#285=DIRECTION('center_axis',(1.,-8.21730109605232E-034,0.));
#286=DIRECTION('ref_axis',(0.,1.,0.));
#287=DIRECTION('center_axis',(1.,-8.21730109605232E-034,0.));
#288=DIRECTION('ref_axis',(0.,1.,0.));
#289=DIRECTION('center_axis',(1.,-8.21730109605232E-034,0.));
#290=DIRECTION('ref_axis',(0.,1.,0.));
#291=DIRECTION('center_axis',(1.,-8.21730109605232E-034,0.));
#292=DIRECTION('ref_axis',(0.,1.,0.));
#293=DIRECTION('center_axis',(1.,-8.21730109605232E-034,0.));
#294=DIRECTION('ref_axis',(0.,1.,0.));
#295=DIRECTION('center_axis',(-1.,8.21730109605232E-034,0.));
#296=DIRECTION('ref_axis',(0.,1.,0.));
#297=DIRECTION('center_axis',(1.,-8.21730109605232E-034,0.));
#298=DIRECTION('ref_axis',(0.,1.,0.));
#299=DIRECTION('center_axis',(1.,-8.21730109605232E-034,0.));
#300=DIRECTION('ref_axis',(0.,0.,-1.));
#301=DIRECTION('center_axis',(1.,-8.21730109605232E-034,0.));
#302=DIRECTION('ref_axis',(0.,1.,0.));
#303=DIRECTION('center_axis',(1.,-8.21730109605232E-034,0.));
#304=DIRECTION('ref_axis',(0.,1.,0.));
#305=DIRECTION('center_axis',(1.,-8.21730109605232E-034,0.));
#306=DIRECTION('ref_axis',(0.,1.,0.));
#307=DIRECTION('center_axis',(-1.,8.21730109605232E-034,0.));
#308=DIRECTION('ref_axis',(0.,1.,0.));
#309=DIRECTION('center_axis',(1.,-8.21730109605232E-034,0.));
#310=DIRECTION('ref_axis',(0.,1.,0.));
#311=DIRECTION('center_axis',(1.,-8.21730109605232E-034,0.));
#312=DIRECTION('ref_axis',(0.,0.,-1.));
#313=DIRECTION('center_axis',(-1.,8.21730109605232E-034,0.));
#314=DIRECTION('ref_axis',(0.,0.,1.));
#315=CARTESIAN_POINT('',(0.,0.,0.));
#316=CARTESIAN_POINT('Origin',(-56.3490185224381,-9.,15.5884572681199));
#317=CARTESIAN_POINT('',(45.,-9.,18.0469572681199));
#318=CARTESIAN_POINT('Origin',(45.,-9.,15.5884572681199));
#319=CARTESIAN_POINT('',(57.,-9.,13.1299572681199));
#320=CARTESIAN_POINT('Origin',(57.,-9.,15.5884572681199));
#321=CARTESIAN_POINT('Origin',(-56.3490185224381,18.,0.));
#322=CARTESIAN_POINT('',(45.,18.,2.4585));
#323=CARTESIAN_POINT('Origin',(45.,18.,0.));
#324=CARTESIAN_POINT('',(57.,18.,-2.4585));
#325=CARTESIAN_POINT('Origin',(57.,18.,0.));
#326=CARTESIAN_POINT('Origin',(-56.3490185224381,-9.00000000000001,-15.5884572681199));
#327=CARTESIAN_POINT('',(45.,-9.00000000000001,-13.1299572681199));
#328=CARTESIAN_POINT('Origin',(45.,-9.00000000000001,-15.5884572681199));
#329=CARTESIAN_POINT('',(57.,-9.00000000000001,-18.0469572681199));
#330=CARTESIAN_POINT('Origin',(57.,-9.00000000000001,-15.5884572681199));
#331=CARTESIAN_POINT('Origin',(20.998480133669,-1.72550833817832E-032,0.));
#332=CARTESIAN_POINT('',(20.,-1.64346021921046E-032,3.3235));
#333=CARTESIAN_POINT('Origin',(20.,-1.64346021921046E-032,0.));
#334=CARTESIAN_POINT('Origin',(10.,-8.21730109605232E-033,0.));
#335=CARTESIAN_POINT('',(-1.05625786426459E-015,8.67958890573531E-049,3.3235));
#336=CARTESIAN_POINT('Origin',(-1.11022302462516E-015,1.71056941445901E-048,
0.));
#337=CARTESIAN_POINT('Origin',(0.499999999999998,-4.10865054802614E-034,
0.));
#338=CARTESIAN_POINT('',(0.999999999999998,12.5,0.));
#339=CARTESIAN_POINT('Origin',(0.999999999999998,-8.21730109605231E-034,
0.));
#340=CARTESIAN_POINT('',(-2.11251572852918E-015,11.5,0.));
#341=CARTESIAN_POINT('Origin',(-2.11251572852918E-015,1.73591778114706E-048,
0.));
#342=CARTESIAN_POINT('Origin',(23.,-1.88997925209203E-032,0.));
#343=CARTESIAN_POINT('',(45.,12.5,0.));
#344=CARTESIAN_POINT('Origin',(45.,-3.69778549322355E-032,0.));
#345=CARTESIAN_POINT('Origin',(45.,23.,0.));
#346=CARTESIAN_POINT('',(45.,33.5,0.));
#347=CARTESIAN_POINT('Origin',(45.,-3.69778549322355E-032,0.));
#348=CARTESIAN_POINT('Origin',(45.25,-3.71832874596368E-032,0.));
#349=CARTESIAN_POINT('',(45.5,34.,0.));
#350=CARTESIAN_POINT('Origin',(45.5,-3.73887199870381E-032,0.));
#351=CARTESIAN_POINT('Origin',(51.,-4.19082355898668E-032,0.));
#352=CARTESIAN_POINT('',(56.5,34.,0.));
#353=CARTESIAN_POINT('Origin',(56.5,-4.64277511926956E-032,0.));
#354=CARTESIAN_POINT('Origin',(56.75,-4.66331837200969E-032,0.));
#355=CARTESIAN_POINT('',(57.,33.5,0.));
#356=CARTESIAN_POINT('Origin',(57.,-4.68386162474982E-032,0.));
#357=CARTESIAN_POINT('Origin',(57.,23.75,0.));
#358=CARTESIAN_POINT('',(57.,14.,0.));
#359=CARTESIAN_POINT('Origin',(57.,-4.68386162474982E-032,0.));
#360=CARTESIAN_POINT('Origin',(58.25,-4.78657788845048E-032,0.));
#361=CARTESIAN_POINT('',(59.5,14.,0.));
#362=CARTESIAN_POINT('Origin',(59.5,-4.88929415215113E-032,0.));
#363=CARTESIAN_POINT('Origin',(59.75,-4.90983740489126E-032,0.));
#364=CARTESIAN_POINT('',(60.,13.5,0.));
#365=CARTESIAN_POINT('Origin',(60.,-4.93038065763139E-032,0.));
#366=CARTESIAN_POINT('Origin',(60.,6.75,0.));
#367=CARTESIAN_POINT('Origin',(-1.05625786426459E-015,5.75,0.));
#368=UNCERTAINTY_MEASURE_WITH_UNIT(LENGTH_MEASURE(0.01),#372,
'DISTANCE_ACCURACY_VALUE',
'Maximum model space distance between geometric entities at asserted c
onnectivities');
#369=UNCERTAINTY_MEASURE_WITH_UNIT(LENGTH_MEASURE(1.E-006),#372,
'DISTANCE_ACCURACY_VALUE',
'Maximum model space distance between geometric entities at asserted c
onnectivities');
#370=(
GEOMETRIC_REPRESENTATION_CONTEXT(3)
GLOBAL_UNCERTAINTY_ASSIGNED_CONTEXT((#368))
GLOBAL_UNIT_ASSIGNED_CONTEXT((#372,#375,#373))
REPRESENTATION_CONTEXT('','3D')
);
#371=(
GEOMETRIC_REPRESENTATION_CONTEXT(3)
GLOBAL_UNCERTAINTY_ASSIGNED_CONTEXT((#369))
GLOBAL_UNIT_ASSIGNED_CONTEXT((#372,#375,#373))
REPRESENTATION_CONTEXT('','3D')
);
#372=(
LENGTH_UNIT()
NAMED_UNIT(*)
SI_UNIT(.MILLI.,.METRE.)
);
#373=(
NAMED_UNIT(*)
SI_UNIT($,.STERADIAN.)
SOLID_ANGLE_UNIT()
);
#374=DIMENSIONAL_EXPONENTS(0.,0.,0.,0.,0.,0.,0.);
#375=(
CONVERSION_BASED_UNIT('degree',#377)
NAMED_UNIT(#374)
PLANE_ANGLE_UNIT()
);
#376=(
NAMED_UNIT(*)
PLANE_ANGLE_UNIT()
SI_UNIT($,.RADIAN.)
);
#377=PLANE_ANGLE_MEASURE_WITH_UNIT(PLANE_ANGLE_MEASURE(0.01745329252),#376);
#378=SHAPE_DEFINITION_REPRESENTATION(#379,#380);
#379=PRODUCT_DEFINITION_SHAPE('',$,#382);
#380=SHAPE_REPRESENTATION('',(#210),#370);
#381=DESIGN_CONTEXT('part definition',#386,'design');
#382=PRODUCT_DEFINITION('DBF160_99-00a Aufnahme',
'DBF160_99-00a Aufnahme',#383,#381);
#383=PRODUCT_DEFINITION_FORMATION('',$,#388);
#384=PRODUCT_RELATED_PRODUCT_CATEGORY('DBF160_99-00a Aufnahme',
'DBF160_99-00a Aufnahme',(#388));
#385=APPLICATION_PROTOCOL_DEFINITION('international standard',
'ap203_configuration_controlled_3d_design_of_mechanical_parts_and_asse
mblies_mim_lf',2004,#386);
#386=APPLICATION_CONTEXT(
'Configuration Controlled 3D Design of Mechanical Parts and Assemblies');
#387=MECHANICAL_CONTEXT('part definition',#386,'mechanical');
#388=PRODUCT('DBF160_99-00a Aufnahme','DBF160_99-00a Aufnahme',$,(#387));
#389=PRESENTATION_STYLE_ASSIGNMENT((#390));
#390=SURFACE_STYLE_USAGE(.BOTH.,#391);
#391=SURFACE_SIDE_STYLE($,(#392));
#392=SURFACE_STYLE_FILL_AREA(#393);
#393=FILL_AREA_STYLE($,(#394));
#394=FILL_AREA_STYLE_COLOUR($,#395);
#395=COLOUR_RGB('',0.63921568627451,0.63921568627451,0.686274509803922);
ENDSEC;
END-ISO-10303-21;
