ISO-10303-21;
HEADER;
/* Generated by software containing ST-Developer
 * from STEP Tools, Inc. (www.steptools.com) 
 */

FILE_DESCRIPTION(
/* description */ (''),
/* implementation_level */ '2;1');

FILE_NAME(
/* name */ 
'Y:\\Futter\\Synchronisation Ordner\\(2) Dateien f\X\FCr Webseite\\Sta
ndardaufnahme\\DBF34_99-00 Aufnahme.stp',
/* time_stamp */ '2022-01-29T20:37:45+01:00',
/* author */ ('MKoch'),
/* organization */ (''),
/* preprocessor_version */ 'ST-DEVELOPER v15.2',
/* originating_system */ 'Autodesk Inventor 2014',
/* authorisation */ '');

FILE_SCHEMA (('CONFIG_CONTROL_DESIGN'));
ENDSEC;

DATA;
#10=MECHANICAL_DESIGN_GEOMETRIC_PRESENTATION_REPRESENTATION('',(#16),#328);
#11=DIMENSIONAL_EXPONENTS(0.,0.,0.,0.,0.,0.,0.);
#12=(
CONVERSION_BASED_UNIT('degree',#13)
NAMED_UNIT(#11)
PLANE_ANGLE_UNIT()
);
#13=PLANE_ANGLE_MEASURE_WITH_UNIT(PLANE_ANGLE_MEASURE(0.01745329252),#331);
#14=SHAPE_REPRESENTATION_RELATIONSHIP('SRR','None',#334,#15);
#15=ADVANCED_BREP_SHAPE_REPRESENTATION($,(#188),#327);
#16=STYLED_ITEM('',(#344),#188);
#17=CONICAL_SURFACE('',#206,6.75,0.7853981634);
#18=CONICAL_SURFACE('',#218,6.75,0.7853981634);
#19=PLANE('',#193);
#20=PLANE('',#208);
#21=PLANE('',#210);
#22=PLANE('',#214);
#23=FACE_BOUND('',#56,.T.);
#24=FACE_BOUND('',#58,.T.);
#25=FACE_BOUND('',#59,.T.);
#26=FACE_BOUND('',#60,.T.);
#27=FACE_BOUND('',#61,.T.);
#28=FACE_BOUND('',#63,.T.);
#29=FACE_BOUND('',#65,.T.);
#30=FACE_BOUND('',#67,.T.);
#31=FACE_BOUND('',#69,.T.);
#32=FACE_BOUND('',#71,.T.);
#33=FACE_BOUND('',#73,.T.);
#34=FACE_BOUND('',#74,.T.);
#35=FACE_BOUND('',#75,.T.);
#36=FACE_BOUND('',#76,.T.);
#37=FACE_BOUND('',#78,.T.);
#38=FACE_BOUND('',#80,.T.);
#39=FACE_BOUND('',#82,.T.);
#40=FACE_BOUND('',#84,.T.);
#41=FACE_BOUND('',#86,.T.);
#42=FACE_OUTER_BOUND('',#55,.T.);
#43=FACE_OUTER_BOUND('',#57,.T.);
#44=FACE_OUTER_BOUND('',#62,.T.);
#45=FACE_OUTER_BOUND('',#64,.T.);
#46=FACE_OUTER_BOUND('',#66,.T.);
#47=FACE_OUTER_BOUND('',#68,.T.);
#48=FACE_OUTER_BOUND('',#70,.T.);
#49=FACE_OUTER_BOUND('',#72,.T.);
#50=FACE_OUTER_BOUND('',#77,.T.);
#51=FACE_OUTER_BOUND('',#79,.T.);
#52=FACE_OUTER_BOUND('',#81,.T.);
#53=FACE_OUTER_BOUND('',#83,.T.);
#54=FACE_OUTER_BOUND('',#85,.T.);
#55=EDGE_LOOP('',(#135));
#56=EDGE_LOOP('',(#136));
#57=EDGE_LOOP('',(#137));
#58=EDGE_LOOP('',(#138));
#59=EDGE_LOOP('',(#139));
#60=EDGE_LOOP('',(#140));
#61=EDGE_LOOP('',(#141));
#62=EDGE_LOOP('',(#142));
#63=EDGE_LOOP('',(#143));
#64=EDGE_LOOP('',(#144));
#65=EDGE_LOOP('',(#145));
#66=EDGE_LOOP('',(#146));
#67=EDGE_LOOP('',(#147));
#68=EDGE_LOOP('',(#148));
#69=EDGE_LOOP('',(#149));
#70=EDGE_LOOP('',(#150));
#71=EDGE_LOOP('',(#151));
#72=EDGE_LOOP('',(#152));
#73=EDGE_LOOP('',(#153));
#74=EDGE_LOOP('',(#154));
#75=EDGE_LOOP('',(#155));
#76=EDGE_LOOP('',(#156));
#77=EDGE_LOOP('',(#157));
#78=EDGE_LOOP('',(#158));
#79=EDGE_LOOP('',(#159));
#80=EDGE_LOOP('',(#160));
#81=EDGE_LOOP('',(#161));
#82=EDGE_LOOP('',(#162));
#83=EDGE_LOOP('',(#163));
#84=EDGE_LOOP('',(#164));
#85=EDGE_LOOP('',(#165));
#86=EDGE_LOOP('',(#166));
#87=CIRCLE('',#191,15.);
#88=CIRCLE('',#192,15.);
#89=CIRCLE('',#194,7.);
#90=CIRCLE('',#195,0.7835);
#91=CIRCLE('',#196,0.783500000000036);
#92=CIRCLE('',#197,0.7835);
#93=CIRCLE('',#199,0.7835);
#94=CIRCLE('',#201,0.7835);
#95=CIRCLE('',#203,0.7835);
#96=CIRCLE('',#205,7.);
#97=CIRCLE('',#207,6.49999994604648);
#98=CIRCLE('',#209,7.);
#99=CIRCLE('',#211,6.05);
#100=CIRCLE('',#213,6.05);
#101=CIRCLE('',#215,6.49999994604648);
#102=CIRCLE('',#217,7.);
#103=VERTEX_POINT('',#281);
#104=VERTEX_POINT('',#283);
#105=VERTEX_POINT('',#286);
#106=VERTEX_POINT('',#288);
#107=VERTEX_POINT('',#290);
#108=VERTEX_POINT('',#292);
#109=VERTEX_POINT('',#295);
#110=VERTEX_POINT('',#298);
#111=VERTEX_POINT('',#301);
#112=VERTEX_POINT('',#304);
#113=VERTEX_POINT('',#307);
#114=VERTEX_POINT('',#310);
#115=VERTEX_POINT('',#313);
#116=VERTEX_POINT('',#316);
#117=VERTEX_POINT('',#319);
#118=VERTEX_POINT('',#322);
#119=EDGE_CURVE('',#103,#103,#87,.T.);
#120=EDGE_CURVE('',#104,#104,#88,.T.);
#121=EDGE_CURVE('',#105,#105,#89,.T.);
#122=EDGE_CURVE('',#106,#106,#90,.T.);
#123=EDGE_CURVE('',#107,#107,#91,.T.);
#124=EDGE_CURVE('',#108,#108,#92,.T.);
#125=EDGE_CURVE('',#109,#109,#93,.T.);
#126=EDGE_CURVE('',#110,#110,#94,.T.);
#127=EDGE_CURVE('',#111,#111,#95,.T.);
#128=EDGE_CURVE('',#112,#112,#96,.T.);
#129=EDGE_CURVE('',#113,#113,#97,.T.);
#130=EDGE_CURVE('',#114,#114,#98,.T.);
#131=EDGE_CURVE('',#115,#115,#99,.T.);
#132=EDGE_CURVE('',#116,#116,#100,.T.);
#133=EDGE_CURVE('',#117,#117,#101,.T.);
#134=EDGE_CURVE('',#118,#118,#102,.T.);
#135=ORIENTED_EDGE('',*,*,#119,.T.);
#136=ORIENTED_EDGE('',*,*,#120,.T.);
#137=ORIENTED_EDGE('',*,*,#120,.F.);
#138=ORIENTED_EDGE('',*,*,#121,.T.);
#139=ORIENTED_EDGE('',*,*,#122,.T.);
#140=ORIENTED_EDGE('',*,*,#123,.T.);
#141=ORIENTED_EDGE('',*,*,#124,.T.);
#142=ORIENTED_EDGE('',*,*,#125,.T.);
#143=ORIENTED_EDGE('',*,*,#124,.F.);
#144=ORIENTED_EDGE('',*,*,#126,.T.);
#145=ORIENTED_EDGE('',*,*,#123,.F.);
#146=ORIENTED_EDGE('',*,*,#127,.T.);
#147=ORIENTED_EDGE('',*,*,#122,.F.);
#148=ORIENTED_EDGE('',*,*,#121,.F.);
#149=ORIENTED_EDGE('',*,*,#128,.T.);
#150=ORIENTED_EDGE('',*,*,#129,.T.);
#151=ORIENTED_EDGE('',*,*,#128,.F.);
#152=ORIENTED_EDGE('',*,*,#119,.F.);
#153=ORIENTED_EDGE('',*,*,#127,.F.);
#154=ORIENTED_EDGE('',*,*,#126,.F.);
#155=ORIENTED_EDGE('',*,*,#125,.F.);
#156=ORIENTED_EDGE('',*,*,#130,.T.);
#157=ORIENTED_EDGE('',*,*,#129,.F.);
#158=ORIENTED_EDGE('',*,*,#131,.T.);
#159=ORIENTED_EDGE('',*,*,#132,.T.);
#160=ORIENTED_EDGE('',*,*,#131,.F.);
#161=ORIENTED_EDGE('',*,*,#133,.T.);
#162=ORIENTED_EDGE('',*,*,#132,.F.);
#163=ORIENTED_EDGE('',*,*,#134,.T.);
#164=ORIENTED_EDGE('',*,*,#130,.F.);
#165=ORIENTED_EDGE('',*,*,#133,.F.);
#166=ORIENTED_EDGE('',*,*,#134,.F.);
#167=CYLINDRICAL_SURFACE('',#190,15.);
#168=CYLINDRICAL_SURFACE('',#198,0.7835);
#169=CYLINDRICAL_SURFACE('',#200,0.7835);
#170=CYLINDRICAL_SURFACE('',#202,0.7835);
#171=CYLINDRICAL_SURFACE('',#204,7.);
#172=CYLINDRICAL_SURFACE('',#212,6.05);
#173=CYLINDRICAL_SURFACE('',#216,7.);
#174=ADVANCED_FACE('',(#42,#23),#167,.T.);
#175=ADVANCED_FACE('',(#43,#24,#25,#26,#27),#19,.T.);
#176=ADVANCED_FACE('',(#44,#28),#168,.F.);
#177=ADVANCED_FACE('',(#45,#29),#169,.F.);
#178=ADVANCED_FACE('',(#46,#30),#170,.F.);
#179=ADVANCED_FACE('',(#47,#31),#171,.T.);
#180=ADVANCED_FACE('',(#48,#32),#17,.T.);
#181=ADVANCED_FACE('',(#49,#33,#34,#35,#36),#20,.T.);
#182=ADVANCED_FACE('',(#50,#37),#21,.T.);
#183=ADVANCED_FACE('',(#51,#38),#172,.F.);
#184=ADVANCED_FACE('',(#52,#39),#22,.T.);
#185=ADVANCED_FACE('',(#53,#40),#173,.T.);
#186=ADVANCED_FACE('',(#54,#41),#18,.T.);
#187=CLOSED_SHELL('',(#174,#175,#176,#177,#178,#179,#180,#181,#182,#183,
#184,#185,#186));
#188=MANIFOLD_SOLID_BREP('Volumenk\X\F6rper1',#187);
#189=AXIS2_PLACEMENT_3D('placement',#279,#219,#220);
#190=AXIS2_PLACEMENT_3D('',#280,#221,#222);
#191=AXIS2_PLACEMENT_3D('',#282,#223,#224);
#192=AXIS2_PLACEMENT_3D('',#284,#225,#226);
#193=AXIS2_PLACEMENT_3D('',#285,#227,#228);
#194=AXIS2_PLACEMENT_3D('',#287,#229,#230);
#195=AXIS2_PLACEMENT_3D('',#289,#231,#232);
#196=AXIS2_PLACEMENT_3D('',#291,#233,#234);
#197=AXIS2_PLACEMENT_3D('',#293,#235,#236);
#198=AXIS2_PLACEMENT_3D('',#294,#237,#238);
#199=AXIS2_PLACEMENT_3D('',#296,#239,#240);
#200=AXIS2_PLACEMENT_3D('',#297,#241,#242);
#201=AXIS2_PLACEMENT_3D('',#299,#243,#244);
#202=AXIS2_PLACEMENT_3D('',#300,#245,#246);
#203=AXIS2_PLACEMENT_3D('',#302,#247,#248);
#204=AXIS2_PLACEMENT_3D('',#303,#249,#250);
#205=AXIS2_PLACEMENT_3D('',#305,#251,#252);
#206=AXIS2_PLACEMENT_3D('',#306,#253,#254);
#207=AXIS2_PLACEMENT_3D('',#308,#255,#256);
#208=AXIS2_PLACEMENT_3D('',#309,#257,#258);
#209=AXIS2_PLACEMENT_3D('',#311,#259,#260);
#210=AXIS2_PLACEMENT_3D('',#312,#261,#262);
#211=AXIS2_PLACEMENT_3D('',#314,#263,#264);
#212=AXIS2_PLACEMENT_3D('',#315,#265,#266);
#213=AXIS2_PLACEMENT_3D('',#317,#267,#268);
#214=AXIS2_PLACEMENT_3D('',#318,#269,#270);
#215=AXIS2_PLACEMENT_3D('',#320,#271,#272);
#216=AXIS2_PLACEMENT_3D('',#321,#273,#274);
#217=AXIS2_PLACEMENT_3D('',#323,#275,#276);
#218=AXIS2_PLACEMENT_3D('',#324,#277,#278);
#219=DIRECTION('axis',(0.,0.,1.));
#220=DIRECTION('refdir',(1.,0.,0.));
#221=DIRECTION('center_axis',(-1.,0.,0.));
#222=DIRECTION('ref_axis',(0.,-0.499999999993262,0.866025403788329));
#223=DIRECTION('center_axis',(1.,0.,0.));
#224=DIRECTION('ref_axis',(0.,0.1045284613858,0.994521895566064));
#225=DIRECTION('center_axis',(-1.,0.,0.));
#226=DIRECTION('ref_axis',(0.,-0.913545458412236,0.406736641347171));
#227=DIRECTION('center_axis',(1.,0.,0.));
#228=DIRECTION('ref_axis',(0.,0.866025403788329,0.499999999993262));
#229=DIRECTION('center_axis',(-1.,0.,0.));
#230=DIRECTION('ref_axis',(0.,-0.913545452601712,0.406736654397822));
#231=DIRECTION('center_axis',(-1.,0.,0.));
#232=DIRECTION('ref_axis',(0.,-0.995279483241399,-0.0970502459488555));
#233=DIRECTION('center_axis',(-1.,-4.42904723622902E-016,1.38244752410025E-015));
#234=DIRECTION('ref_axis',(0.,0.58110858111593,-0.813826036050353));
#235=DIRECTION('center_axis',(-1.,0.,0.));
#236=DIRECTION('ref_axis',(0.,0.413591465858236,0.9104625743924));
#237=DIRECTION('center_axis',(1.,0.,0.));
#238=DIRECTION('ref_axis',(0.,0.866025403788329,0.499999999993262));
#239=DIRECTION('center_axis',(-1.,0.,0.));
#240=DIRECTION('ref_axis',(0.,0.866025434459256,0.499999946869654));
#241=DIRECTION('center_axis',(1.,0.,0.));
#242=DIRECTION('ref_axis',(0.,0.,-1.));
#243=DIRECTION('center_axis',(-1.,0.,0.));
#244=DIRECTION('ref_axis',(0.,-5.66801799425734E-015,-1.));
#245=DIRECTION('center_axis',(1.,0.,0.));
#246=DIRECTION('ref_axis',(0.,-0.866025403788329,0.499999999993262));
#247=DIRECTION('center_axis',(-1.,0.,0.));
#248=DIRECTION('ref_axis',(0.,-0.866025434459255,0.499999946869655));
#249=DIRECTION('center_axis',(-1.,0.,0.));
#250=DIRECTION('ref_axis',(0.,-0.499999999993262,0.866025403788329));
#251=DIRECTION('center_axis',(-1.,0.,0.));
#252=DIRECTION('ref_axis',(0.,-0.913545452601714,0.406736654397818));
#253=DIRECTION('center_axis',(-1.,0.,0.));
#254=DIRECTION('ref_axis',(0.,-0.499999999993262,0.866025403788329));
#255=DIRECTION('center_axis',(-1.,0.,0.));
#256=DIRECTION('ref_axis',(0.,-0.91354546154098,0.406736634319897));
#257=DIRECTION('center_axis',(-1.,0.,0.));
#258=DIRECTION('ref_axis',(0.,-0.866025403788329,-0.499999999993261));
#259=DIRECTION('center_axis',(1.,0.,0.));
#260=DIRECTION('ref_axis',(0.,0.104528475593257,0.9945218940728));
#261=DIRECTION('center_axis',(1.,0.,0.));
#262=DIRECTION('ref_axis',(0.,0.866025403788329,0.499999999993261));
#263=DIRECTION('center_axis',(-1.,0.,0.));
#264=DIRECTION('ref_axis',(0.,0.913545447319419,-0.406736666262046));
#265=DIRECTION('center_axis',(1.,0.,0.));
#266=DIRECTION('ref_axis',(0.,0.499999999993262,-0.866025403788329));
#267=DIRECTION('center_axis',(-1.,0.,0.));
#268=DIRECTION('ref_axis',(0.,0.499999978019836,-0.866025416474692));
#269=DIRECTION('center_axis',(-1.,0.,0.));
#270=DIRECTION('ref_axis',(0.,-0.866025403788329,-0.499999999993262));
#271=DIRECTION('center_axis',(-1.,0.,0.));
#272=DIRECTION('ref_axis',(0.,-0.913545461540979,0.4067366343199));
#273=DIRECTION('center_axis',(-1.,0.,0.));
#274=DIRECTION('ref_axis',(0.,-0.499999999993262,0.866025403788329));
#275=DIRECTION('center_axis',(1.,0.,0.));
#276=DIRECTION('ref_axis',(0.,0.104528475593257,0.9945218940728));
#277=DIRECTION('center_axis',(1.,0.,0.));
#278=DIRECTION('ref_axis',(0.,-0.499999999993262,0.866025403788329));
#279=CARTESIAN_POINT('',(0.,0.,0.));
#280=CARTESIAN_POINT('Origin',(-11.894202,3.356555,0.));
#281=CARTESIAN_POINT('',(-13.394202,-4.14344502458065,12.9903810425749));
#282=CARTESIAN_POINT('Origin',(-13.394202,3.356555,0.));
#283=CARTESIAN_POINT('',(-10.394202,-4.14344502458065,12.9903810425749));
#284=CARTESIAN_POINT('Origin',(-10.394202,3.356555,-2.22044604925031E-015));
#285=CARTESIAN_POINT('Origin',(-10.394202,-4.143445,12.990381));
#286=CARTESIAN_POINT('',(-10.394202,-0.14344492486843,6.0621778698683));
#287=CARTESIAN_POINT('Origin',(-10.394202,3.356555,-2.22044604925031E-015));
#288=CARTESIAN_POINT('',(-10.394202,-1.44697592789883,-6.75296004162763));
#289=CARTESIAN_POINT('Origin',(-10.394202,-0.768445,-7.14471));
#290=CARTESIAN_POINT('',(-10.394202,11.606555,-0.7835));
#291=CARTESIAN_POINT('Origin',(-10.394202,11.6065550000001,3.56659146660832E-014));
#292=CARTESIAN_POINT('',(-10.394202,-0.0899140721011732,7.53645995837237));
#293=CARTESIAN_POINT('Origin',(-10.394202,-0.768445000000001,7.14471));
#294=CARTESIAN_POINT('Origin',(-66.035913,-0.768445,7.14471));
#295=CARTESIAN_POINT('',(-13.394202,-0.0899140721011729,7.53645995837237));
#296=CARTESIAN_POINT('Origin',(-13.394202,-0.768445,7.14471));
#297=CARTESIAN_POINT('Origin',(-66.035913,11.606555,0.));
#298=CARTESIAN_POINT('',(-13.394202,11.606555,-0.7835));
#299=CARTESIAN_POINT('Origin',(-13.394202,11.606555,-4.16333634234434E-016));
#300=CARTESIAN_POINT('Origin',(-66.035913,-0.768445,-7.14471));
#301=CARTESIAN_POINT('',(-13.394202,-1.44697592789883,-6.75296004162763));
#302=CARTESIAN_POINT('Origin',(-13.394202,-0.768445,-7.14471));
#303=CARTESIAN_POINT('Origin',(-8.894202,3.356555,0.));
#304=CARTESIAN_POINT('',(-7.894202,-0.143444924868431,6.0621778698683));
#305=CARTESIAN_POINT('Origin',(-7.894202,3.356555,0.));
#306=CARTESIAN_POINT('Origin',(-7.644202,3.356555,0.));
#307=CARTESIAN_POINT('',(-7.39420194604775,0.106554973023876,5.62916504672402));
#308=CARTESIAN_POINT('Origin',(-7.39420194604775,3.356555,1.11022302462516E-015));
#309=CARTESIAN_POINT('Origin',(-13.394202,-0.143445,6.062178));
#310=CARTESIAN_POINT('',(-13.394202,-0.143444924868431,6.0621778698683));
#311=CARTESIAN_POINT('Origin',(-13.394202,3.356555,1.11022302462516E-015));
#312=CARTESIAN_POINT('Origin',(-7.394202,-0.143445,6.062178));
#313=CARTESIAN_POINT('',(-7.394202,6.38155486702001,-5.23945376967189));
#314=CARTESIAN_POINT('Origin',(-7.394202,3.356555,1.11022302462516E-015));
#315=CARTESIAN_POINT('Origin',(-63.035913,3.356555,0.));
#316=CARTESIAN_POINT('',(-43.394202,6.38155486702001,-5.23945376967189));
#317=CARTESIAN_POINT('Origin',(-43.394202,3.356555,2.22044604925031E-015));
#318=CARTESIAN_POINT('Origin',(-43.394202,3.356555,0.));
#319=CARTESIAN_POINT('',(-43.3942020539522,0.106554973023876,5.62916504672402));
#320=CARTESIAN_POINT('Origin',(-43.3942020539522,3.356555,0.));
#321=CARTESIAN_POINT('Origin',(-28.394202,3.356555,0.));
#322=CARTESIAN_POINT('',(-42.894202,-0.143444924868431,6.0621778698683));
#323=CARTESIAN_POINT('Origin',(-42.894202,3.356555,1.11022302462516E-015));
#324=CARTESIAN_POINT('Origin',(-43.144202,3.356555,0.));
#325=UNCERTAINTY_MEASURE_WITH_UNIT(LENGTH_MEASURE(0.01),#329,
'DISTANCE_ACCURACY_VALUE',
'Maximum model space distance between geometric entities at asserted c
onnectivities');
#326=UNCERTAINTY_MEASURE_WITH_UNIT(LENGTH_MEASURE(1.E-006),#329,
'DISTANCE_ACCURACY_VALUE',
'Maximum model space distance between geometric entities at asserted c
onnectivities');
#327=(
GEOMETRIC_REPRESENTATION_CONTEXT(3)
GLOBAL_UNCERTAINTY_ASSIGNED_CONTEXT((#325))
GLOBAL_UNIT_ASSIGNED_CONTEXT((#329,#331,#330))
REPRESENTATION_CONTEXT('','3D')
);
#328=(
GEOMETRIC_REPRESENTATION_CONTEXT(3)
GLOBAL_UNCERTAINTY_ASSIGNED_CONTEXT((#326))
GLOBAL_UNIT_ASSIGNED_CONTEXT((#329,#12,#330))
REPRESENTATION_CONTEXT('','3D')
);
#329=(
LENGTH_UNIT()
NAMED_UNIT(*)
SI_UNIT(.MILLI.,.METRE.)
);
#330=(
NAMED_UNIT(*)
SI_UNIT($,.STERADIAN.)
SOLID_ANGLE_UNIT()
);
#331=(
NAMED_UNIT(*)
PLANE_ANGLE_UNIT()
SI_UNIT($,.RADIAN.)
);
#332=SHAPE_DEFINITION_REPRESENTATION(#333,#334);
#333=PRODUCT_DEFINITION_SHAPE('',$,#336);
#334=SHAPE_REPRESENTATION('',(#189),#327);
#335=DESIGN_CONTEXT('part definition',#340,'design');
#336=PRODUCT_DEFINITION('aufnahme_dbf34_klingelnberg',
'aufnahme_dbf34_klingelnberg',#337,#335);
#337=PRODUCT_DEFINITION_FORMATION('',$,#342);
#338=PRODUCT_RELATED_PRODUCT_CATEGORY('aufnahme_dbf34_klingelnberg',
'aufnahme_dbf34_klingelnberg',(#342));
#339=APPLICATION_PROTOCOL_DEFINITION('international standard',
'ap203_configuration_controlled_3d_design_of_mechanical_parts_and_asse
mblies_mim_lf',2004,#340);
#340=APPLICATION_CONTEXT(
'Configuration Controlled 3D Design of Mechanical Parts and Assemblies');
#341=MECHANICAL_CONTEXT('part definition',#340,'mechanical');
#342=PRODUCT('aufnahme_dbf34_klingelnberg',
'aufnahme_dbf34_klingelnberg',$,(#341));
#343=PRESENTATION_STYLE_ASSIGNMENT((#345));
#344=PRESENTATION_STYLE_ASSIGNMENT((#346));
#345=SURFACE_STYLE_USAGE(.BOTH.,#347);
#346=SURFACE_STYLE_USAGE(.BOTH.,#348);
#347=SURFACE_SIDE_STYLE($,(#349));
#348=SURFACE_SIDE_STYLE($,(#350));
#349=SURFACE_STYLE_FILL_AREA(#351);
#350=SURFACE_STYLE_FILL_AREA(#352);
#351=FILL_AREA_STYLE($,(#353));
#352=FILL_AREA_STYLE($,(#354));
#353=FILL_AREA_STYLE_COLOUR($,#355);
#354=FILL_AREA_STYLE_COLOUR($,#356);
#355=COLOUR_RGB('',0.749019607843137,0.749019607843137,0.749019607843137);
#356=COLOUR_RGB('',0.501960784313725,0.501960784313725,0.501960784313725);
ENDSEC;
END-ISO-10303-21;
