ISO-10303-21;
HEADER;
/* Generated by software containing ST-Developer
 * from STEP Tools, Inc. (www.steptools.com) 
 */

FILE_DESCRIPTION(
/* description */ ('Aufnahme'),
/* implementation_level */ '2;1');

FILE_NAME(
/* name */ 
'Y:\\Futter\\Synchronisation Ordner\\(2) Dateien f\X\FCr Webseite\\Sta
ndardaufnahme\\DBF63_99-00 Aufnahme.stp',
/* time_stamp */ '2022-01-29T20:37:13+01:00',
/* author */ ('MKoch'),
/* organization */ (''),
/* preprocessor_version */ 'ST-DEVELOPER v15.2',
/* originating_system */ 'Autodesk Inventor 2014',
/* authorisation */ '');

FILE_SCHEMA (('CONFIG_CONTROL_DESIGN'));
ENDSEC;

DATA;
#10=MECHANICAL_DESIGN_GEOMETRIC_PRESENTATION_REPRESENTATION('',(#13),#371);
#11=SHAPE_REPRESENTATION_RELATIONSHIP('SRR','None',#380,#12);
#12=ADVANCED_BREP_SHAPE_REPRESENTATION($,(#209),#370);
#13=STYLED_ITEM('',(#389),#209);
#14=PLANE('',#216);
#15=PLANE('',#222);
#16=PLANE('',#228);
#17=PLANE('',#237);
#18=CYLINDRICAL_SURFACE('',#214,6.);
#19=CYLINDRICAL_SURFACE('',#220,17.);
#20=CYLINDRICAL_SURFACE('',#236,6.);
#21=CYLINDRICAL_SURFACE('',#241,2.067);
#22=CYLINDRICAL_SURFACE('',#242,1.2295);
#23=CYLINDRICAL_SURFACE('',#243,1.2295);
#24=CYLINDRICAL_SURFACE('',#244,1.2295);
#25=FACE_BOUND('',#62,.T.);
#26=FACE_BOUND('',#64,.T.);
#27=FACE_BOUND('',#67,.T.);
#28=FACE_BOUND('',#69,.T.);
#29=FACE_BOUND('',#70,.T.);
#30=FACE_BOUND('',#71,.T.);
#31=FACE_BOUND('',#72,.T.);
#32=FACE_BOUND('',#73,.T.);
#33=FACE_BOUND('',#74,.T.);
#34=FACE_BOUND('',#76,.T.);
#35=FACE_BOUND('',#77,.T.);
#36=FACE_BOUND('',#78,.T.);
#37=FACE_BOUND('',#79,.T.);
#38=FACE_BOUND('',#80,.T.);
#39=FACE_BOUND('',#81,.T.);
#40=FACE_BOUND('',#83,.T.);
#41=FACE_BOUND('',#85,.T.);
#42=FACE_BOUND('',#86,.T.);
#43=FACE_BOUND('',#87,.T.);
#44=FACE_BOUND('',#90,.T.);
#45=FACE_BOUND('',#92,.T.);
#46=FACE_BOUND('',#94,.T.);
#47=FACE_BOUND('',#96,.T.);
#48=FACE_OUTER_BOUND('',#61,.T.);
#49=FACE_OUTER_BOUND('',#63,.T.);
#50=FACE_OUTER_BOUND('',#65,.T.);
#51=FACE_OUTER_BOUND('',#66,.T.);
#52=FACE_OUTER_BOUND('',#68,.T.);
#53=FACE_OUTER_BOUND('',#75,.T.);
#54=FACE_OUTER_BOUND('',#82,.T.);
#55=FACE_OUTER_BOUND('',#84,.T.);
#56=FACE_OUTER_BOUND('',#88,.T.);
#57=FACE_OUTER_BOUND('',#89,.T.);
#58=FACE_OUTER_BOUND('',#91,.T.);
#59=FACE_OUTER_BOUND('',#93,.T.);
#60=FACE_OUTER_BOUND('',#95,.T.);
#61=EDGE_LOOP('',(#151));
#62=EDGE_LOOP('',(#152));
#63=EDGE_LOOP('',(#153));
#64=EDGE_LOOP('',(#154));
#65=EDGE_LOOP('',(#155));
#66=EDGE_LOOP('',(#156));
#67=EDGE_LOOP('',(#157));
#68=EDGE_LOOP('',(#158));
#69=EDGE_LOOP('',(#159));
#70=EDGE_LOOP('',(#160));
#71=EDGE_LOOP('',(#161));
#72=EDGE_LOOP('',(#162));
#73=EDGE_LOOP('',(#163));
#74=EDGE_LOOP('',(#164));
#75=EDGE_LOOP('',(#165));
#76=EDGE_LOOP('',(#166));
#77=EDGE_LOOP('',(#167));
#78=EDGE_LOOP('',(#168));
#79=EDGE_LOOP('',(#169));
#80=EDGE_LOOP('',(#170));
#81=EDGE_LOOP('',(#171));
#82=EDGE_LOOP('',(#172));
#83=EDGE_LOOP('',(#173));
#84=EDGE_LOOP('',(#174));
#85=EDGE_LOOP('',(#175));
#86=EDGE_LOOP('',(#176));
#87=EDGE_LOOP('',(#177));
#88=EDGE_LOOP('',(#178));
#89=EDGE_LOOP('',(#179));
#90=EDGE_LOOP('',(#180));
#91=EDGE_LOOP('',(#181));
#92=EDGE_LOOP('',(#182));
#93=EDGE_LOOP('',(#183));
#94=EDGE_LOOP('',(#184));
#95=EDGE_LOOP('',(#185));
#96=EDGE_LOOP('',(#186));
#97=CIRCLE('',#212,6.);
#98=CIRCLE('',#213,5.5);
#99=CIRCLE('',#215,6.);
#100=CIRCLE('',#218,17.);
#101=CIRCLE('',#219,16.5);
#102=CIRCLE('',#221,17.);
#103=CIRCLE('',#223,1.2295);
#104=CIRCLE('',#224,1.2295);
#105=CIRCLE('',#225,1.2295);
#106=CIRCLE('',#227,16.5);
#107=CIRCLE('',#229,6.);
#108=CIRCLE('',#230,1.2295);
#109=CIRCLE('',#231,1.2295);
#110=CIRCLE('',#232,1.2295);
#111=CIRCLE('',#234,5.5);
#112=CIRCLE('',#235,6.);
#113=CIRCLE('',#238,2.067);
#114=CIRCLE('',#240,2.067);
#115=VERTEX_POINT('',#317);
#116=VERTEX_POINT('',#319);
#117=VERTEX_POINT('',#322);
#118=VERTEX_POINT('',#326);
#119=VERTEX_POINT('',#328);
#120=VERTEX_POINT('',#331);
#121=VERTEX_POINT('',#334);
#122=VERTEX_POINT('',#336);
#123=VERTEX_POINT('',#338);
#124=VERTEX_POINT('',#341);
#125=VERTEX_POINT('',#344);
#126=VERTEX_POINT('',#346);
#127=VERTEX_POINT('',#348);
#128=VERTEX_POINT('',#350);
#129=VERTEX_POINT('',#353);
#130=VERTEX_POINT('',#355);
#131=VERTEX_POINT('',#359);
#132=VERTEX_POINT('',#362);
#133=EDGE_CURVE('',#115,#115,#97,.T.);
#134=EDGE_CURVE('',#116,#116,#98,.T.);
#135=EDGE_CURVE('',#117,#117,#99,.T.);
#136=EDGE_CURVE('',#118,#118,#100,.T.);
#137=EDGE_CURVE('',#119,#119,#101,.T.);
#138=EDGE_CURVE('',#120,#120,#102,.T.);
#139=EDGE_CURVE('',#121,#121,#103,.T.);
#140=EDGE_CURVE('',#122,#122,#104,.T.);
#141=EDGE_CURVE('',#123,#123,#105,.T.);
#142=EDGE_CURVE('',#124,#124,#106,.T.);
#143=EDGE_CURVE('',#125,#125,#107,.T.);
#144=EDGE_CURVE('',#126,#126,#108,.T.);
#145=EDGE_CURVE('',#127,#127,#109,.T.);
#146=EDGE_CURVE('',#128,#128,#110,.T.);
#147=EDGE_CURVE('',#129,#129,#111,.T.);
#148=EDGE_CURVE('',#130,#130,#112,.T.);
#149=EDGE_CURVE('',#131,#131,#113,.T.);
#150=EDGE_CURVE('',#132,#132,#114,.T.);
#151=ORIENTED_EDGE('',*,*,#133,.T.);
#152=ORIENTED_EDGE('',*,*,#134,.T.);
#153=ORIENTED_EDGE('',*,*,#135,.T.);
#154=ORIENTED_EDGE('',*,*,#133,.F.);
#155=ORIENTED_EDGE('',*,*,#134,.F.);
#156=ORIENTED_EDGE('',*,*,#136,.T.);
#157=ORIENTED_EDGE('',*,*,#137,.T.);
#158=ORIENTED_EDGE('',*,*,#138,.F.);
#159=ORIENTED_EDGE('',*,*,#136,.F.);
#160=ORIENTED_EDGE('',*,*,#135,.F.);
#161=ORIENTED_EDGE('',*,*,#139,.T.);
#162=ORIENTED_EDGE('',*,*,#140,.T.);
#163=ORIENTED_EDGE('',*,*,#141,.T.);
#164=ORIENTED_EDGE('',*,*,#137,.F.);
#165=ORIENTED_EDGE('',*,*,#142,.T.);
#166=ORIENTED_EDGE('',*,*,#138,.T.);
#167=ORIENTED_EDGE('',*,*,#143,.T.);
#168=ORIENTED_EDGE('',*,*,#144,.T.);
#169=ORIENTED_EDGE('',*,*,#145,.T.);
#170=ORIENTED_EDGE('',*,*,#146,.T.);
#171=ORIENTED_EDGE('',*,*,#142,.F.);
#172=ORIENTED_EDGE('',*,*,#147,.T.);
#173=ORIENTED_EDGE('',*,*,#148,.T.);
#174=ORIENTED_EDGE('',*,*,#143,.F.);
#175=ORIENTED_EDGE('',*,*,#148,.F.);
#176=ORIENTED_EDGE('',*,*,#149,.T.);
#177=ORIENTED_EDGE('',*,*,#147,.F.);
#178=ORIENTED_EDGE('',*,*,#150,.T.);
#179=ORIENTED_EDGE('',*,*,#149,.F.);
#180=ORIENTED_EDGE('',*,*,#150,.F.);
#181=ORIENTED_EDGE('',*,*,#146,.F.);
#182=ORIENTED_EDGE('',*,*,#141,.F.);
#183=ORIENTED_EDGE('',*,*,#145,.F.);
#184=ORIENTED_EDGE('',*,*,#140,.F.);
#185=ORIENTED_EDGE('',*,*,#144,.F.);
#186=ORIENTED_EDGE('',*,*,#139,.F.);
#187=CONICAL_SURFACE('',#211,5.75,45.0000000000002);
#188=CONICAL_SURFACE('',#217,16.75,45.0000000000003);
#189=CONICAL_SURFACE('',#226,16.75,45.);
#190=CONICAL_SURFACE('',#233,5.75,45.0000000000001);
#191=CONICAL_SURFACE('',#239,1.0335,59.);
#192=ADVANCED_FACE('',(#48,#25),#187,.T.);
#193=ADVANCED_FACE('',(#49,#26),#18,.T.);
#194=ADVANCED_FACE('',(#50),#14,.T.);
#195=ADVANCED_FACE('',(#51,#27),#188,.T.);
#196=ADVANCED_FACE('',(#52,#28),#19,.T.);
#197=ADVANCED_FACE('',(#29,#30,#31,#32,#33),#15,.T.);
#198=ADVANCED_FACE('',(#53,#34),#189,.T.);
#199=ADVANCED_FACE('',(#35,#36,#37,#38,#39),#16,.T.);
#200=ADVANCED_FACE('',(#54,#40),#190,.T.);
#201=ADVANCED_FACE('',(#55,#41),#20,.T.);
#202=ADVANCED_FACE('',(#42,#43),#17,.T.);
#203=ADVANCED_FACE('',(#56),#191,.F.);
#204=ADVANCED_FACE('',(#57,#44),#21,.F.);
#205=ADVANCED_FACE('',(#58,#45),#22,.F.);
#206=ADVANCED_FACE('',(#59,#46),#23,.F.);
#207=ADVANCED_FACE('',(#60,#47),#24,.F.);
#208=CLOSED_SHELL('',(#192,#193,#194,#195,#196,#197,#198,#199,#200,#201,
#202,#203,#204,#205,#206,#207));
#209=MANIFOLD_SOLID_BREP('Volumenk\X\F6rper1',#208);
#210=AXIS2_PLACEMENT_3D('placement',#315,#245,#246);
#211=AXIS2_PLACEMENT_3D('',#316,#247,#248);
#212=AXIS2_PLACEMENT_3D('',#318,#249,#250);
#213=AXIS2_PLACEMENT_3D('',#320,#251,#252);
#214=AXIS2_PLACEMENT_3D('',#321,#253,#254);
#215=AXIS2_PLACEMENT_3D('',#323,#255,#256);
#216=AXIS2_PLACEMENT_3D('',#324,#257,#258);
#217=AXIS2_PLACEMENT_3D('',#325,#259,#260);
#218=AXIS2_PLACEMENT_3D('',#327,#261,#262);
#219=AXIS2_PLACEMENT_3D('',#329,#263,#264);
#220=AXIS2_PLACEMENT_3D('',#330,#265,#266);
#221=AXIS2_PLACEMENT_3D('',#332,#267,#268);
#222=AXIS2_PLACEMENT_3D('',#333,#269,#270);
#223=AXIS2_PLACEMENT_3D('',#335,#271,#272);
#224=AXIS2_PLACEMENT_3D('',#337,#273,#274);
#225=AXIS2_PLACEMENT_3D('',#339,#275,#276);
#226=AXIS2_PLACEMENT_3D('',#340,#277,#278);
#227=AXIS2_PLACEMENT_3D('',#342,#279,#280);
#228=AXIS2_PLACEMENT_3D('',#343,#281,#282);
#229=AXIS2_PLACEMENT_3D('',#345,#283,#284);
#230=AXIS2_PLACEMENT_3D('',#347,#285,#286);
#231=AXIS2_PLACEMENT_3D('',#349,#287,#288);
#232=AXIS2_PLACEMENT_3D('',#351,#289,#290);
#233=AXIS2_PLACEMENT_3D('',#352,#291,#292);
#234=AXIS2_PLACEMENT_3D('',#354,#293,#294);
#235=AXIS2_PLACEMENT_3D('',#356,#295,#296);
#236=AXIS2_PLACEMENT_3D('',#357,#297,#298);
#237=AXIS2_PLACEMENT_3D('',#358,#299,#300);
#238=AXIS2_PLACEMENT_3D('',#360,#301,#302);
#239=AXIS2_PLACEMENT_3D('',#361,#303,#304);
#240=AXIS2_PLACEMENT_3D('',#363,#305,#306);
#241=AXIS2_PLACEMENT_3D('',#364,#307,#308);
#242=AXIS2_PLACEMENT_3D('',#365,#309,#310);
#243=AXIS2_PLACEMENT_3D('',#366,#311,#312);
#244=AXIS2_PLACEMENT_3D('',#367,#313,#314);
#245=DIRECTION('axis',(0.,0.,1.));
#246=DIRECTION('refdir',(1.,0.,0.));
#247=DIRECTION('center_axis',(-1.,-1.85037170770859E-016,0.));
#248=DIRECTION('ref_axis',(8.84960381947589E-017,-1.,0.));
#249=DIRECTION('center_axis',(1.,1.85037170770859E-016,0.));
#250=DIRECTION('ref_axis',(2.05432527401305E-032,-1.,0.));
#251=DIRECTION('center_axis',(-1.,-1.85037170770859E-016,0.));
#252=DIRECTION('ref_axis',(1.85037170770859E-016,-1.,0.));
#253=DIRECTION('center_axis',(1.,1.85037170770859E-016,0.));
#254=DIRECTION('ref_axis',(-2.05432527401305E-032,1.,0.));
#255=DIRECTION('center_axis',(1.,1.85037170770859E-016,0.));
#256=DIRECTION('ref_axis',(-2.05432527401305E-032,1.,0.));
#257=DIRECTION('center_axis',(1.,1.85037170770859E-016,0.));
#258=DIRECTION('ref_axis',(0.,0.,-1.));
#259=DIRECTION('center_axis',(-1.,-1.85037170770859E-016,0.));
#260=DIRECTION('ref_axis',(9.1137710976692E-017,-1.,0.));
#261=DIRECTION('center_axis',(1.,1.85037170770859E-016,0.));
#262=DIRECTION('ref_axis',(2.05432527401305E-032,-1.,0.));
#263=DIRECTION('center_axis',(-1.,-1.85037170770859E-016,0.));
#264=DIRECTION('ref_axis',(1.85037170770859E-016,-1.,0.));
#265=DIRECTION('center_axis',(1.,1.85037170770859E-016,0.));
#266=DIRECTION('ref_axis',(-2.05432527401305E-032,1.,0.));
#267=DIRECTION('center_axis',(-1.,-1.85037170770859E-016,0.));
#268=DIRECTION('ref_axis',(2.05432527401305E-032,-1.,0.));
#269=DIRECTION('center_axis',(1.,1.85037170770859E-016,0.));
#270=DIRECTION('ref_axis',(0.,0.,-1.));
#271=DIRECTION('center_axis',(-1.,-1.85037170770859E-016,0.));
#272=DIRECTION('ref_axis',(0.,0.,-1.));
#273=DIRECTION('center_axis',(-1.,-1.85037170770859E-016,0.));
#274=DIRECTION('ref_axis',(-1.77909787493173E-032,0.866025403784439,0.5));
#275=DIRECTION('center_axis',(-1.,-1.85037170770859E-016,0.));
#276=DIRECTION('ref_axis',(1.77909787493173E-032,-0.866025403784438,0.5));
#277=DIRECTION('center_axis',(1.,1.85037170770859E-016,0.));
#278=DIRECTION('ref_axis',(9.1137710976692E-017,-1.,0.));
#279=DIRECTION('center_axis',(1.,1.85037170770859E-016,0.));
#280=DIRECTION('ref_axis',(1.85037170770859E-016,-1.,0.));
#281=DIRECTION('center_axis',(-1.,-1.85037170770859E-016,0.));
#282=DIRECTION('ref_axis',(0.,0.,1.));
#283=DIRECTION('center_axis',(1.,1.85037170770859E-016,0.));
#284=DIRECTION('ref_axis',(-2.05432527401305E-032,1.,0.));
#285=DIRECTION('center_axis',(1.,1.85037170770859E-016,0.));
#286=DIRECTION('ref_axis',(0.,0.,-1.));
#287=DIRECTION('center_axis',(1.,1.85037170770859E-016,0.));
#288=DIRECTION('ref_axis',(-1.77909787493173E-032,0.866025403784439,0.5));
#289=DIRECTION('center_axis',(1.,1.85037170770859E-016,0.));
#290=DIRECTION('ref_axis',(1.77909787493173E-032,-0.866025403784438,0.5));
#291=DIRECTION('center_axis',(1.,1.85037170770859E-016,0.));
#292=DIRECTION('ref_axis',(8.84960381947589E-017,-1.,0.));
#293=DIRECTION('center_axis',(1.,1.85037170770859E-016,0.));
#294=DIRECTION('ref_axis',(1.85037170770859E-016,-1.,0.));
#295=DIRECTION('center_axis',(-1.,-1.85037170770859E-016,0.));
#296=DIRECTION('ref_axis',(2.05432527401305E-032,-1.,0.));
#297=DIRECTION('center_axis',(1.,1.85037170770859E-016,0.));
#298=DIRECTION('ref_axis',(-2.05432527401305E-032,1.,0.));
#299=DIRECTION('center_axis',(-1.,-1.85037170770859E-016,0.));
#300=DIRECTION('ref_axis',(0.,0.,1.));
#301=DIRECTION('center_axis',(1.,1.85037170770859E-016,0.));
#302=DIRECTION('ref_axis',(0.,0.,1.));
#303=DIRECTION('center_axis',(-1.,-1.85037170770859E-016,0.));
#304=DIRECTION('ref_axis',(0.,0.,1.));
#305=DIRECTION('center_axis',(-1.,-1.85037170770859E-016,0.));
#306=DIRECTION('ref_axis',(0.,0.,1.));
#307=DIRECTION('center_axis',(-1.,-1.85037170770859E-016,0.));
#308=DIRECTION('ref_axis',(0.,0.,1.));
#309=DIRECTION('center_axis',(1.,-9.25185853854298E-017,-1.60246890531964E-016));
#310=DIRECTION('ref_axis',(1.77909787493173E-032,-0.866025403784438,0.5));
#311=DIRECTION('center_axis',(1.,-9.25185853854297E-017,1.60246890531964E-016));
#312=DIRECTION('ref_axis',(-1.77909787493173E-032,0.866025403784439,0.5));
#313=DIRECTION('center_axis',(1.,1.85037170770859E-016,0.));
#314=DIRECTION('ref_axis',(0.,0.,-1.));
#315=CARTESIAN_POINT('',(0.,0.,0.));
#316=CARTESIAN_POINT('Origin',(35.75,6.61507885505823E-015,0.));
#317=CARTESIAN_POINT('',(35.5,6.00000000000001,7.34763812293426E-016));
#318=CARTESIAN_POINT('Origin',(35.5,6.56881956236551E-015,0.));
#319=CARTESIAN_POINT('',(36.,5.50000000000001,-6.73533494602307E-016));
#320=CARTESIAN_POINT('Origin',(36.,6.66133814775094E-015,0.));
#321=CARTESIAN_POINT('Origin',(34.5,6.38378239159465E-015,0.));
#322=CARTESIAN_POINT('',(33.,6.00000000000001,0.));
#323=CARTESIAN_POINT('Origin',(33.,6.10622663543836E-015,0.));
#324=CARTESIAN_POINT('Origin',(36.,3.00000000000001,0.));
#325=CARTESIAN_POINT('Origin',(32.75,6.05996734274565E-015,0.));
#326=CARTESIAN_POINT('',(32.5,17.,2.08183080149804E-015));
#327=CARTESIAN_POINT('Origin',(32.5,6.01370805005293E-015,0.));
#328=CARTESIAN_POINT('',(33.,16.5,-2.02060048380692E-015));
#329=CARTESIAN_POINT('Origin',(33.,6.10622663543836E-015,0.));
#330=CARTESIAN_POINT('Origin',(29.,5.36607795235492E-015,0.));
#331=CARTESIAN_POINT('',(25.5,17.,-2.08183080149804E-015));
#332=CARTESIAN_POINT('Origin',(25.5,4.71844785465692E-015,0.));
#333=CARTESIAN_POINT('Origin',(33.,11.5,0.));
#334=CARTESIAN_POINT('',(33.,-8.99999999999999,-1.2295));
#335=CARTESIAN_POINT('Origin',(33.,-8.99999999999999,0.));
#336=CARTESIAN_POINT('',(33.,5.56477823395297,-7.17947863405995));
#337=CARTESIAN_POINT('Origin',(33.,4.5,-7.79422863405995));
#338=CARTESIAN_POINT('',(33.,3.43522176604704,8.40897863405995));
#339=CARTESIAN_POINT('Origin',(33.,4.50000000000001,7.79422863405994));
#340=CARTESIAN_POINT('Origin',(25.25,4.6721885619642E-015,0.));
#341=CARTESIAN_POINT('',(25.,16.5,2.02060048380692E-015));
#342=CARTESIAN_POINT('Origin',(25.,4.62592926927149E-015,0.));
#343=CARTESIAN_POINT('Origin',(25.,11.5,0.));
#344=CARTESIAN_POINT('',(25.,6.,0.));
#345=CARTESIAN_POINT('Origin',(25.,4.62592926927149E-015,0.));
#346=CARTESIAN_POINT('',(25.,-9.,1.2295));
#347=CARTESIAN_POINT('Origin',(25.,-9.,0.));
#348=CARTESIAN_POINT('',(25.,3.43522176604703,-8.40897863405995));
#349=CARTESIAN_POINT('Origin',(25.,4.5,-7.79422863405995));
#350=CARTESIAN_POINT('',(25.,5.56477823395297,7.17947863405994));
#351=CARTESIAN_POINT('Origin',(25.,4.50000000000001,7.79422863405994));
#352=CARTESIAN_POINT('Origin',(0.249999999999999,4.62592926927147E-017,
0.));
#353=CARTESIAN_POINT('',(-4.62592926927149E-016,5.5,6.73533494602307E-016));
#354=CARTESIAN_POINT('Origin',(5.55111512312578E-016,9.24446373305873E-032,
0.));
#355=CARTESIAN_POINT('',(0.499999999999998,6.,-7.34763812293426E-016));
#356=CARTESIAN_POINT('Origin',(0.499999999999998,9.25185853854294E-017,
0.));
#357=CARTESIAN_POINT('Origin',(12.5,2.31296463463574E-015,0.));
#358=CARTESIAN_POINT('Origin',(-6.16297582203915E-032,3.,0.));
#359=CARTESIAN_POINT('',(5.55111512312578E-016,1.02716263700653E-031,2.067));
#360=CARTESIAN_POINT('Origin',(0.,0.,0.));
#361=CARTESIAN_POINT('Origin',(16.620989449765,3.07550086319682E-015,0.));
#362=CARTESIAN_POINT('',(16.,2.96059473233375E-015,2.067));
#363=CARTESIAN_POINT('Origin',(16.,2.96059473233375E-015,0.));
#364=CARTESIAN_POINT('Origin',(8.,1.48029736616688E-015,0.));
#365=CARTESIAN_POINT('Origin',(-27.0666296707248,4.50000000000001,7.79422863405995));
#366=CARTESIAN_POINT('Origin',(-27.0666296707248,4.5,-7.79422863405996));
#367=CARTESIAN_POINT('Origin',(-27.0666296707248,-9.00000000000001,0.));
#368=UNCERTAINTY_MEASURE_WITH_UNIT(LENGTH_MEASURE(0.01),#372,
'DISTANCE_ACCURACY_VALUE',
'Maximum model space distance between geometric entities at asserted c
onnectivities');
#369=UNCERTAINTY_MEASURE_WITH_UNIT(LENGTH_MEASURE(1.E-006),#372,
'DISTANCE_ACCURACY_VALUE',
'Maximum model space distance between geometric entities at asserted c
onnectivities');
#370=(
GEOMETRIC_REPRESENTATION_CONTEXT(3)
GLOBAL_UNCERTAINTY_ASSIGNED_CONTEXT((#368))
GLOBAL_UNIT_ASSIGNED_CONTEXT((#372,#375,#373))
REPRESENTATION_CONTEXT('','3D')
);
#371=(
GEOMETRIC_REPRESENTATION_CONTEXT(3)
GLOBAL_UNCERTAINTY_ASSIGNED_CONTEXT((#369))
GLOBAL_UNIT_ASSIGNED_CONTEXT((#372,#375,#373))
REPRESENTATION_CONTEXT('','3D')
);
#372=(
LENGTH_UNIT()
NAMED_UNIT(*)
SI_UNIT(.MILLI.,.METRE.)
);
#373=(
NAMED_UNIT(*)
SI_UNIT($,.STERADIAN.)
SOLID_ANGLE_UNIT()
);
#374=DIMENSIONAL_EXPONENTS(0.,0.,0.,0.,0.,0.,0.);
#375=(
CONVERSION_BASED_UNIT('degree',#377)
NAMED_UNIT(#374)
PLANE_ANGLE_UNIT()
);
#376=(
NAMED_UNIT(*)
PLANE_ANGLE_UNIT()
SI_UNIT($,.RADIAN.)
);
#377=PLANE_ANGLE_MEASURE_WITH_UNIT(PLANE_ANGLE_MEASURE(0.01745329252),#376);
#378=SHAPE_DEFINITION_REPRESENTATION(#379,#380);
#379=PRODUCT_DEFINITION_SHAPE('',$,#382);
#380=SHAPE_REPRESENTATION('',(#210),#370);
#381=DESIGN_CONTEXT('part definition',#386,'design');
#382=PRODUCT_DEFINITION('DBF63_99-00 Aufnahme','DBF63_99-00 Aufnahme',#383,
#381);
#383=PRODUCT_DEFINITION_FORMATION('',$,#388);
#384=PRODUCT_RELATED_PRODUCT_CATEGORY('DBF63_99-00 Aufnahme',
'DBF63_99-00 Aufnahme',(#388));
#385=APPLICATION_PROTOCOL_DEFINITION('international standard',
'ap203_configuration_controlled_3d_design_of_mechanical_parts_and_asse
mblies_mim_lf',2004,#386);
#386=APPLICATION_CONTEXT(
'Configuration Controlled 3D Design of Mechanical Parts and Assemblies');
#387=MECHANICAL_CONTEXT('part definition',#386,'mechanical');
#388=PRODUCT('DBF63_99-00 Aufnahme','DBF63_99-00 Aufnahme',$,(#387));
#389=PRESENTATION_STYLE_ASSIGNMENT((#390));
#390=SURFACE_STYLE_USAGE(.BOTH.,#391);
#391=SURFACE_SIDE_STYLE($,(#392));
#392=SURFACE_STYLE_FILL_AREA(#393);
#393=FILL_AREA_STYLE($,(#394));
#394=FILL_AREA_STYLE_COLOUR($,#395);
#395=COLOUR_RGB('',0.631372549019608,0.784313725490196,0.603921568627451);
ENDSEC;
END-ISO-10303-21;
