ISO-10303-21;
HEADER;
/* Generated by software containing ST-Developer
 * from STEP Tools, Inc. (www.steptools.com) 
 */

FILE_DESCRIPTION(
/* description */ ('Aufnahme Alicona'),
/* implementation_level */ '2;1');

FILE_NAME(
/* name */ 
'Y:\\Futter\\Synchronisation Ordner\\(2) Dateien f\X\FCr Webseite\\Sta
ndardaufnahme\\DBF 55_99-01 Aufnahme Alicona.stp',
/* time_stamp */ '2022-01-29T20:37:25+01:00',
/* author */ ('MKoch'),
/* organization */ (''),
/* preprocessor_version */ 'ST-DEVELOPER v15.2',
/* originating_system */ 'Autodesk Inventor 2014',
/* authorisation */ '');

FILE_SCHEMA (('CONFIG_CONTROL_DESIGN'));
ENDSEC;

DATA;
#10=MECHANICAL_DESIGN_GEOMETRIC_PRESENTATION_REPRESENTATION('',(#13),#405);
#11=SHAPE_REPRESENTATION_RELATIONSHIP('SRR','None',#414,#12);
#12=ADVANCED_BREP_SHAPE_REPRESENTATION($,(#229),#404);
#13=STYLED_ITEM('',(#423),#229);
#14=PLANE('',#239);
#15=PLANE('',#245);
#16=PLANE('',#251);
#17=PLANE('',#261);
#18=CONICAL_SURFACE('',#234,6.875,45.0000000000003);
#19=CONICAL_SURFACE('',#240,16.875,45.0000000000004);
#20=CONICAL_SURFACE('',#249,16.875,45.0000000000004);
#21=CONICAL_SURFACE('',#256,7.875,44.9999999999999);
#22=CONICAL_SURFACE('',#265,7.65,29.9999999999999);
#23=FACE_BOUND('',#64,.T.);
#24=FACE_BOUND('',#66,.T.);
#25=FACE_BOUND('',#68,.T.);
#26=FACE_BOUND('',#69,.T.);
#27=FACE_BOUND('',#70,.T.);
#28=FACE_BOUND('',#72,.T.);
#29=FACE_BOUND('',#74,.T.);
#30=FACE_BOUND('',#75,.T.);
#31=FACE_BOUND('',#76,.T.);
#32=FACE_BOUND('',#77,.T.);
#33=FACE_BOUND('',#78,.T.);
#34=FACE_BOUND('',#79,.T.);
#35=FACE_BOUND('',#81,.T.);
#36=FACE_BOUND('',#82,.T.);
#37=FACE_BOUND('',#83,.T.);
#38=FACE_BOUND('',#84,.T.);
#39=FACE_BOUND('',#85,.T.);
#40=FACE_BOUND('',#86,.T.);
#41=FACE_BOUND('',#88,.T.);
#42=FACE_BOUND('',#90,.T.);
#43=FACE_BOUND('',#91,.T.);
#44=FACE_BOUND('',#92,.T.);
#45=FACE_BOUND('',#94,.T.);
#46=FACE_BOUND('',#96,.T.);
#47=FACE_BOUND('',#98,.T.);
#48=FACE_BOUND('',#100,.T.);
#49=FACE_BOUND('',#102,.T.);
#50=FACE_OUTER_BOUND('',#63,.T.);
#51=FACE_OUTER_BOUND('',#65,.T.);
#52=FACE_OUTER_BOUND('',#67,.T.);
#53=FACE_OUTER_BOUND('',#71,.T.);
#54=FACE_OUTER_BOUND('',#73,.T.);
#55=FACE_OUTER_BOUND('',#80,.T.);
#56=FACE_OUTER_BOUND('',#87,.T.);
#57=FACE_OUTER_BOUND('',#89,.T.);
#58=FACE_OUTER_BOUND('',#93,.T.);
#59=FACE_OUTER_BOUND('',#95,.T.);
#60=FACE_OUTER_BOUND('',#97,.T.);
#61=FACE_OUTER_BOUND('',#99,.T.);
#62=FACE_OUTER_BOUND('',#101,.T.);
#63=EDGE_LOOP('',(#163));
#64=EDGE_LOOP('',(#164));
#65=EDGE_LOOP('',(#165));
#66=EDGE_LOOP('',(#166));
#67=EDGE_LOOP('',(#167));
#68=EDGE_LOOP('',(#168));
#69=EDGE_LOOP('',(#169));
#70=EDGE_LOOP('',(#170));
#71=EDGE_LOOP('',(#171));
#72=EDGE_LOOP('',(#172));
#73=EDGE_LOOP('',(#173));
#74=EDGE_LOOP('',(#174));
#75=EDGE_LOOP('',(#175));
#76=EDGE_LOOP('',(#176));
#77=EDGE_LOOP('',(#177));
#78=EDGE_LOOP('',(#178));
#79=EDGE_LOOP('',(#179));
#80=EDGE_LOOP('',(#180));
#81=EDGE_LOOP('',(#181));
#82=EDGE_LOOP('',(#182));
#83=EDGE_LOOP('',(#183));
#84=EDGE_LOOP('',(#184));
#85=EDGE_LOOP('',(#185));
#86=EDGE_LOOP('',(#186));
#87=EDGE_LOOP('',(#187));
#88=EDGE_LOOP('',(#188));
#89=EDGE_LOOP('',(#189));
#90=EDGE_LOOP('',(#190));
#91=EDGE_LOOP('',(#191));
#92=EDGE_LOOP('',(#192));
#93=EDGE_LOOP('',(#193));
#94=EDGE_LOOP('',(#194));
#95=EDGE_LOOP('',(#195));
#96=EDGE_LOOP('',(#196));
#97=EDGE_LOOP('',(#197));
#98=EDGE_LOOP('',(#198));
#99=EDGE_LOOP('',(#199));
#100=EDGE_LOOP('',(#200));
#101=EDGE_LOOP('',(#201));
#102=EDGE_LOOP('',(#202));
#103=CIRCLE('',#232,5.5);
#104=CIRCLE('',#233,5.5);
#105=CIRCLE('',#235,7.);
#106=CIRCLE('',#236,6.75);
#107=CIRCLE('',#238,7.);
#108=CIRCLE('',#241,17.);
#109=CIRCLE('',#242,16.75);
#110=CIRCLE('',#244,17.);
#111=CIRCLE('',#246,1.2295);
#112=CIRCLE('',#247,1.2295);
#113=CIRCLE('',#248,1.2295);
#114=CIRCLE('',#250,16.75);
#115=CIRCLE('',#252,7.3);
#116=CIRCLE('',#253,1.2295);
#117=CIRCLE('',#254,1.2295);
#118=CIRCLE('',#255,1.2295);
#119=CIRCLE('',#257,7.75);
#120=CIRCLE('',#258,8.);
#121=CIRCLE('',#260,8.);
#122=CIRCLE('',#266,7.3);
#123=VERTEX_POINT('',#346);
#124=VERTEX_POINT('',#348);
#125=VERTEX_POINT('',#351);
#126=VERTEX_POINT('',#353);
#127=VERTEX_POINT('',#356);
#128=VERTEX_POINT('',#360);
#129=VERTEX_POINT('',#362);
#130=VERTEX_POINT('',#365);
#131=VERTEX_POINT('',#368);
#132=VERTEX_POINT('',#370);
#133=VERTEX_POINT('',#372);
#134=VERTEX_POINT('',#375);
#135=VERTEX_POINT('',#378);
#136=VERTEX_POINT('',#380);
#137=VERTEX_POINT('',#382);
#138=VERTEX_POINT('',#384);
#139=VERTEX_POINT('',#387);
#140=VERTEX_POINT('',#389);
#141=VERTEX_POINT('',#392);
#142=VERTEX_POINT('',#399);
#143=EDGE_CURVE('',#123,#123,#103,.T.);
#144=EDGE_CURVE('',#124,#124,#104,.T.);
#145=EDGE_CURVE('',#125,#125,#105,.T.);
#146=EDGE_CURVE('',#126,#126,#106,.T.);
#147=EDGE_CURVE('',#127,#127,#107,.T.);
#148=EDGE_CURVE('',#128,#128,#108,.T.);
#149=EDGE_CURVE('',#129,#129,#109,.T.);
#150=EDGE_CURVE('',#130,#130,#110,.T.);
#151=EDGE_CURVE('',#131,#131,#111,.T.);
#152=EDGE_CURVE('',#132,#132,#112,.T.);
#153=EDGE_CURVE('',#133,#133,#113,.T.);
#154=EDGE_CURVE('',#134,#134,#114,.T.);
#155=EDGE_CURVE('',#135,#135,#115,.T.);
#156=EDGE_CURVE('',#136,#136,#116,.T.);
#157=EDGE_CURVE('',#137,#137,#117,.T.);
#158=EDGE_CURVE('',#138,#138,#118,.T.);
#159=EDGE_CURVE('',#139,#139,#119,.T.);
#160=EDGE_CURVE('',#140,#140,#120,.T.);
#161=EDGE_CURVE('',#141,#141,#121,.T.);
#162=EDGE_CURVE('',#142,#142,#122,.T.);
#163=ORIENTED_EDGE('',*,*,#143,.F.);
#164=ORIENTED_EDGE('',*,*,#144,.F.);
#165=ORIENTED_EDGE('',*,*,#145,.T.);
#166=ORIENTED_EDGE('',*,*,#146,.T.);
#167=ORIENTED_EDGE('',*,*,#147,.T.);
#168=ORIENTED_EDGE('',*,*,#145,.F.);
#169=ORIENTED_EDGE('',*,*,#143,.T.);
#170=ORIENTED_EDGE('',*,*,#146,.F.);
#171=ORIENTED_EDGE('',*,*,#148,.T.);
#172=ORIENTED_EDGE('',*,*,#149,.T.);
#173=ORIENTED_EDGE('',*,*,#150,.F.);
#174=ORIENTED_EDGE('',*,*,#148,.F.);
#175=ORIENTED_EDGE('',*,*,#147,.F.);
#176=ORIENTED_EDGE('',*,*,#151,.T.);
#177=ORIENTED_EDGE('',*,*,#152,.T.);
#178=ORIENTED_EDGE('',*,*,#153,.T.);
#179=ORIENTED_EDGE('',*,*,#149,.F.);
#180=ORIENTED_EDGE('',*,*,#154,.T.);
#181=ORIENTED_EDGE('',*,*,#150,.T.);
#182=ORIENTED_EDGE('',*,*,#155,.T.);
#183=ORIENTED_EDGE('',*,*,#156,.T.);
#184=ORIENTED_EDGE('',*,*,#157,.T.);
#185=ORIENTED_EDGE('',*,*,#158,.T.);
#186=ORIENTED_EDGE('',*,*,#154,.F.);
#187=ORIENTED_EDGE('',*,*,#159,.T.);
#188=ORIENTED_EDGE('',*,*,#160,.T.);
#189=ORIENTED_EDGE('',*,*,#161,.F.);
#190=ORIENTED_EDGE('',*,*,#160,.F.);
#191=ORIENTED_EDGE('',*,*,#144,.T.);
#192=ORIENTED_EDGE('',*,*,#159,.F.);
#193=ORIENTED_EDGE('',*,*,#158,.F.);
#194=ORIENTED_EDGE('',*,*,#153,.F.);
#195=ORIENTED_EDGE('',*,*,#157,.F.);
#196=ORIENTED_EDGE('',*,*,#152,.F.);
#197=ORIENTED_EDGE('',*,*,#156,.F.);
#198=ORIENTED_EDGE('',*,*,#151,.F.);
#199=ORIENTED_EDGE('',*,*,#162,.F.);
#200=ORIENTED_EDGE('',*,*,#161,.T.);
#201=ORIENTED_EDGE('',*,*,#155,.F.);
#202=ORIENTED_EDGE('',*,*,#162,.T.);
#203=CYLINDRICAL_SURFACE('',#231,5.5);
#204=CYLINDRICAL_SURFACE('',#237,7.);
#205=CYLINDRICAL_SURFACE('',#243,17.);
#206=CYLINDRICAL_SURFACE('',#259,8.);
#207=CYLINDRICAL_SURFACE('',#262,1.2295);
#208=CYLINDRICAL_SURFACE('',#263,1.2295);
#209=CYLINDRICAL_SURFACE('',#264,1.2295);
#210=CYLINDRICAL_SURFACE('',#267,7.3);
#211=ADVANCED_FACE('',(#50,#23),#203,.F.);
#212=ADVANCED_FACE('',(#51,#24),#18,.T.);
#213=ADVANCED_FACE('',(#52,#25),#204,.T.);
#214=ADVANCED_FACE('',(#26,#27),#14,.T.);
#215=ADVANCED_FACE('',(#53,#28),#19,.T.);
#216=ADVANCED_FACE('',(#54,#29),#205,.T.);
#217=ADVANCED_FACE('',(#30,#31,#32,#33,#34),#15,.T.);
#218=ADVANCED_FACE('',(#55,#35),#20,.T.);
#219=ADVANCED_FACE('',(#36,#37,#38,#39,#40),#16,.T.);
#220=ADVANCED_FACE('',(#56,#41),#21,.T.);
#221=ADVANCED_FACE('',(#57,#42),#206,.T.);
#222=ADVANCED_FACE('',(#43,#44),#17,.T.);
#223=ADVANCED_FACE('',(#58,#45),#207,.F.);
#224=ADVANCED_FACE('',(#59,#46),#208,.F.);
#225=ADVANCED_FACE('',(#60,#47),#209,.F.);
#226=ADVANCED_FACE('',(#61,#48),#22,.T.);
#227=ADVANCED_FACE('',(#62,#49),#210,.T.);
#228=CLOSED_SHELL('',(#211,#212,#213,#214,#215,#216,#217,#218,#219,#220,
#221,#222,#223,#224,#225,#226,#227));
#229=MANIFOLD_SOLID_BREP('Volumenk\X\F6rper1',#228);
#230=AXIS2_PLACEMENT_3D('placement',#344,#268,#269);
#231=AXIS2_PLACEMENT_3D('',#345,#270,#271);
#232=AXIS2_PLACEMENT_3D('',#347,#272,#273);
#233=AXIS2_PLACEMENT_3D('',#349,#274,#275);
#234=AXIS2_PLACEMENT_3D('',#350,#276,#277);
#235=AXIS2_PLACEMENT_3D('',#352,#278,#279);
#236=AXIS2_PLACEMENT_3D('',#354,#280,#281);
#237=AXIS2_PLACEMENT_3D('',#355,#282,#283);
#238=AXIS2_PLACEMENT_3D('',#357,#284,#285);
#239=AXIS2_PLACEMENT_3D('',#358,#286,#287);
#240=AXIS2_PLACEMENT_3D('',#359,#288,#289);
#241=AXIS2_PLACEMENT_3D('',#361,#290,#291);
#242=AXIS2_PLACEMENT_3D('',#363,#292,#293);
#243=AXIS2_PLACEMENT_3D('',#364,#294,#295);
#244=AXIS2_PLACEMENT_3D('',#366,#296,#297);
#245=AXIS2_PLACEMENT_3D('',#367,#298,#299);
#246=AXIS2_PLACEMENT_3D('',#369,#300,#301);
#247=AXIS2_PLACEMENT_3D('',#371,#302,#303);
#248=AXIS2_PLACEMENT_3D('',#373,#304,#305);
#249=AXIS2_PLACEMENT_3D('',#374,#306,#307);
#250=AXIS2_PLACEMENT_3D('',#376,#308,#309);
#251=AXIS2_PLACEMENT_3D('',#377,#310,#311);
#252=AXIS2_PLACEMENT_3D('',#379,#312,#313);
#253=AXIS2_PLACEMENT_3D('',#381,#314,#315);
#254=AXIS2_PLACEMENT_3D('',#383,#316,#317);
#255=AXIS2_PLACEMENT_3D('',#385,#318,#319);
#256=AXIS2_PLACEMENT_3D('',#386,#320,#321);
#257=AXIS2_PLACEMENT_3D('',#388,#322,#323);
#258=AXIS2_PLACEMENT_3D('',#390,#324,#325);
#259=AXIS2_PLACEMENT_3D('',#391,#326,#327);
#260=AXIS2_PLACEMENT_3D('',#393,#328,#329);
#261=AXIS2_PLACEMENT_3D('',#394,#330,#331);
#262=AXIS2_PLACEMENT_3D('',#395,#332,#333);
#263=AXIS2_PLACEMENT_3D('',#396,#334,#335);
#264=AXIS2_PLACEMENT_3D('',#397,#336,#337);
#265=AXIS2_PLACEMENT_3D('',#398,#338,#339);
#266=AXIS2_PLACEMENT_3D('',#400,#340,#341);
#267=AXIS2_PLACEMENT_3D('',#401,#342,#343);
#268=DIRECTION('axis',(0.,0.,1.));
#269=DIRECTION('refdir',(1.,0.,0.));
#270=DIRECTION('center_axis',(1.,1.92153985031277E-016,0.));
#271=DIRECTION('ref_axis',(0.,0.,-1.));
#272=DIRECTION('center_axis',(-1.,-1.92153985031277E-016,0.));
#273=DIRECTION('ref_axis',(0.,0.,-1.));
#274=DIRECTION('center_axis',(1.,1.92153985031277E-016,0.));
#275=DIRECTION('ref_axis',(0.,0.,-1.));
#276=DIRECTION('center_axis',(-1.,-1.92153985031278E-016,0.));
#277=DIRECTION('ref_axis',(9.43301381062633E-017,-1.,0.));
#278=DIRECTION('center_axis',(1.,1.92153985031277E-016,0.));
#279=DIRECTION('ref_axis',(0.,-1.,0.));
#280=DIRECTION('center_axis',(-1.,-1.92153985031277E-016,0.));
#281=DIRECTION('ref_axis',(1.92153985031277E-016,-1.,0.));
#282=DIRECTION('center_axis',(1.,1.92153985031277E-016,0.));
#283=DIRECTION('ref_axis',(0.,1.,0.));
#284=DIRECTION('center_axis',(1.,1.92153985031277E-016,0.));
#285=DIRECTION('ref_axis',(0.,1.,0.));
#286=DIRECTION('center_axis',(1.,1.92153985031277E-016,0.));
#287=DIRECTION('ref_axis',(0.,0.,-1.));
#288=DIRECTION('center_axis',(-1.,-1.92153985031276E-016,0.));
#289=DIRECTION('ref_axis',(9.53653110895968E-017,-1.,0.));
#290=DIRECTION('center_axis',(1.,1.92153985031277E-016,0.));
#291=DIRECTION('ref_axis',(0.,-1.,0.));
#292=DIRECTION('center_axis',(-1.,-1.92153985031277E-016,0.));
#293=DIRECTION('ref_axis',(1.92153985031277E-016,-1.,0.));
#294=DIRECTION('center_axis',(1.,1.92153985031277E-016,0.));
#295=DIRECTION('ref_axis',(0.,1.,0.));
#296=DIRECTION('center_axis',(-1.,-1.92153985031277E-016,0.));
#297=DIRECTION('ref_axis',(0.,-1.,0.));
#298=DIRECTION('center_axis',(1.,1.92153985031277E-016,0.));
#299=DIRECTION('ref_axis',(0.,0.,-1.));
#300=DIRECTION('center_axis',(-1.,-1.92153985031277E-016,0.));
#301=DIRECTION('ref_axis',(0.,0.,-1.));
#302=DIRECTION('center_axis',(-1.,-1.92153985031277E-016,0.));
#303=DIRECTION('ref_axis',(0.,0.866025403784439,0.5));
#304=DIRECTION('center_axis',(-1.,-1.92153985031277E-016,0.));
#305=DIRECTION('ref_axis',(0.,-0.866025403784438,0.5));
#306=DIRECTION('center_axis',(1.,1.92153985031277E-016,0.));
#307=DIRECTION('ref_axis',(9.53653110895968E-017,-1.,0.));
#308=DIRECTION('center_axis',(1.,1.92153985031277E-016,0.));
#309=DIRECTION('ref_axis',(1.92153985031277E-016,-1.,0.));
#310=DIRECTION('center_axis',(-1.,-1.92153985031277E-016,0.));
#311=DIRECTION('ref_axis',(0.,0.,1.));
#312=DIRECTION('center_axis',(1.,1.92153985031277E-016,0.));
#313=DIRECTION('ref_axis',(0.,1.,0.));
#314=DIRECTION('center_axis',(1.,1.92153985031277E-016,0.));
#315=DIRECTION('ref_axis',(0.,0.,-1.));
#316=DIRECTION('center_axis',(1.,1.92153985031277E-016,0.));
#317=DIRECTION('ref_axis',(0.,0.866025403784439,0.5));
#318=DIRECTION('center_axis',(1.,1.92153985031277E-016,0.));
#319=DIRECTION('ref_axis',(0.,-0.866025403784438,0.5));
#320=DIRECTION('center_axis',(1.,1.92153985031277E-016,0.));
#321=DIRECTION('ref_axis',(9.45519608884062E-017,-1.,0.));
#322=DIRECTION('center_axis',(1.,1.92153985031277E-016,0.));
#323=DIRECTION('ref_axis',(1.92153985031277E-016,-1.,0.));
#324=DIRECTION('center_axis',(-1.,-1.92153985031277E-016,0.));
#325=DIRECTION('ref_axis',(0.,-1.,0.));
#326=DIRECTION('center_axis',(1.,1.92153985031277E-016,0.));
#327=DIRECTION('ref_axis',(0.,1.,0.));
#328=DIRECTION('center_axis',(1.,1.92153985031277E-016,0.));
#329=DIRECTION('ref_axis',(0.,1.,0.));
#330=DIRECTION('center_axis',(-1.,-1.92153985031277E-016,0.));
#331=DIRECTION('ref_axis',(0.,0.,1.));
#332=DIRECTION('center_axis',(1.,-9.60769925156386E-017,-1.66410232475501E-016));
#333=DIRECTION('ref_axis',(0.,-0.866025403784438,0.5));
#334=DIRECTION('center_axis',(1.,-9.60769925156385E-017,1.66410232475501E-016));
#335=DIRECTION('ref_axis',(0.,0.866025403784439,0.5));
#336=DIRECTION('center_axis',(1.,1.92153985031277E-016,0.));
#337=DIRECTION('ref_axis',(0.,0.,-1.));
#338=DIRECTION('center_axis',(-1.,-1.92153985031277E-016,0.));
#339=DIRECTION('ref_axis',(0.,1.,0.));
#340=DIRECTION('center_axis',(1.,1.92153985031277E-016,0.));
#341=DIRECTION('ref_axis',(0.,1.,0.));
#342=DIRECTION('center_axis',(1.,1.92153985031277E-016,0.));
#343=DIRECTION('ref_axis',(0.,1.,0.));
#344=CARTESIAN_POINT('',(0.,0.,0.));
#345=CARTESIAN_POINT('Origin',(7.68615940125109E-016,-6.06041150547415E-032,
0.));
#346=CARTESIAN_POINT('',(26.,5.66955935034425E-015,5.5));
#347=CARTESIAN_POINT('Origin',(26.,4.9960036108132E-015,0.));
#348=CARTESIAN_POINT('',(7.68615940125108E-016,6.73555739531044E-016,5.5));
#349=CARTESIAN_POINT('Origin',(7.68615940125109E-016,-6.06041150547415E-032,
0.));
#350=CARTESIAN_POINT('Origin',(25.875,4.9719843626843E-015,0.));
#351=CARTESIAN_POINT('',(25.75,7.00000000000001,8.57252759403147E-016));
#352=CARTESIAN_POINT('Origin',(25.75,4.94796511455539E-015,0.));
#353=CARTESIAN_POINT('',(26.,6.75000000000001,-8.26636589424464E-016));
#354=CARTESIAN_POINT('Origin',(26.,4.9960036108132E-015,0.));
#355=CARTESIAN_POINT('Origin',(24.5,4.70777263326629E-015,0.));
#356=CARTESIAN_POINT('',(23.,7.00000000000001,0.));
#357=CARTESIAN_POINT('Origin',(23.,4.41954165571937E-015,0.));
#358=CARTESIAN_POINT('Origin',(26.,3.50000000000001,0.));
#359=CARTESIAN_POINT('Origin',(22.875,4.39552240759046E-015,0.));
#360=CARTESIAN_POINT('',(22.75,17.,2.0818995585505E-015));
#361=CARTESIAN_POINT('Origin',(22.75,4.37150315946155E-015,0.));
#362=CARTESIAN_POINT('',(23.,16.75,-2.05128338857182E-015));
#363=CARTESIAN_POINT('Origin',(23.,4.41954165571937E-015,0.));
#364=CARTESIAN_POINT('Origin',(20.5,3.93915669314118E-015,0.));
#365=CARTESIAN_POINT('',(18.25,17.,-2.0818995585505E-015));
#366=CARTESIAN_POINT('Origin',(18.25,3.50681022682081E-015,0.));
#367=CARTESIAN_POINT('Origin',(23.,12.,0.));
#368=CARTESIAN_POINT('',(23.,-9.,-1.2295));
#369=CARTESIAN_POINT('Origin',(23.,-9.,0.));
#370=CARTESIAN_POINT('',(23.,5.56477823395297,-7.17947863405995));
#371=CARTESIAN_POINT('Origin',(23.,4.5,-7.79422863405995));
#372=CARTESIAN_POINT('',(23.,3.43522176604704,8.40897863405994));
#373=CARTESIAN_POINT('Origin',(23.,4.5,7.79422863405994));
#374=CARTESIAN_POINT('Origin',(18.125,3.4827909786919E-015,0.));
#375=CARTESIAN_POINT('',(18.,16.75,2.05128338857182E-015));
#376=CARTESIAN_POINT('Origin',(18.,3.45877173056299E-015,0.));
#377=CARTESIAN_POINT('Origin',(18.,12.15,0.));
#378=CARTESIAN_POINT('',(18.,7.3,0.));
#379=CARTESIAN_POINT('Origin',(18.,3.45877173056299E-015,0.));
#380=CARTESIAN_POINT('',(18.,-9.,1.2295));
#381=CARTESIAN_POINT('Origin',(18.,-9.,0.));
#382=CARTESIAN_POINT('',(18.,3.43522176604703,-8.40897863405995));
#383=CARTESIAN_POINT('Origin',(18.,4.5,-7.79422863405995));
#384=CARTESIAN_POINT('',(18.,5.56477823395297,7.17947863405994));
#385=CARTESIAN_POINT('Origin',(18.,4.50000000000001,7.79422863405994));
#386=CARTESIAN_POINT('Origin',(0.125000000000001,2.40192481289095E-017,
0.));
#387=CARTESIAN_POINT('',(-7.25915054562603E-016,7.75,9.49101269339199E-016));
#388=CARTESIAN_POINT('Origin',(7.63278329429795E-016,-6.16297582203915E-032,
0.));
#389=CARTESIAN_POINT('',(0.25,8.,-9.79717439317883E-016));
#390=CARTESIAN_POINT('Origin',(0.25,4.80384962578191E-017,0.));
#391=CARTESIAN_POINT('Origin',(7.6,1.46037028623771E-015,0.));
#392=CARTESIAN_POINT('',(15.2,8.,0.));
#393=CARTESIAN_POINT('Origin',(15.2,2.92074057247541E-015,0.));
#394=CARTESIAN_POINT('Origin',(0.,4.,0.));
#395=CARTESIAN_POINT('Origin',(19.5,4.50000000000001,7.79422863405994));
#396=CARTESIAN_POINT('Origin',(19.5,4.5,-7.79422863405995));
#397=CARTESIAN_POINT('Origin',(19.5,-9.,0.));
#398=CARTESIAN_POINT('Origin',(15.8062177826491,3.03722773520826E-015,0.));
#399=CARTESIAN_POINT('',(16.4124355652982,7.3,0.));
#400=CARTESIAN_POINT('Origin',(16.4124355652982,3.15371489794111E-015,0.));
#401=CARTESIAN_POINT('Origin',(17.2062177826491,3.30624331425205E-015,0.));
#402=UNCERTAINTY_MEASURE_WITH_UNIT(LENGTH_MEASURE(0.01),#406,
'DISTANCE_ACCURACY_VALUE',
'Maximum model space distance between geometric entities at asserted c
onnectivities');
#403=UNCERTAINTY_MEASURE_WITH_UNIT(LENGTH_MEASURE(1.E-006),#406,
'DISTANCE_ACCURACY_VALUE',
'Maximum model space distance between geometric entities at asserted c
onnectivities');
#404=(
GEOMETRIC_REPRESENTATION_CONTEXT(3)
GLOBAL_UNCERTAINTY_ASSIGNED_CONTEXT((#402))
GLOBAL_UNIT_ASSIGNED_CONTEXT((#406,#409,#407))
REPRESENTATION_CONTEXT('','3D')
);
#405=(
GEOMETRIC_REPRESENTATION_CONTEXT(3)
GLOBAL_UNCERTAINTY_ASSIGNED_CONTEXT((#403))
GLOBAL_UNIT_ASSIGNED_CONTEXT((#406,#409,#407))
REPRESENTATION_CONTEXT('','3D')
);
#406=(
LENGTH_UNIT()
NAMED_UNIT(*)
SI_UNIT(.MILLI.,.METRE.)
);
#407=(
NAMED_UNIT(*)
SI_UNIT($,.STERADIAN.)
SOLID_ANGLE_UNIT()
);
#408=DIMENSIONAL_EXPONENTS(0.,0.,0.,0.,0.,0.,0.);
#409=(
CONVERSION_BASED_UNIT('degree',#411)
NAMED_UNIT(#408)
PLANE_ANGLE_UNIT()
);
#410=(
NAMED_UNIT(*)
PLANE_ANGLE_UNIT()
SI_UNIT($,.RADIAN.)
);
#411=PLANE_ANGLE_MEASURE_WITH_UNIT(PLANE_ANGLE_MEASURE(0.01745329252),#410);
#412=SHAPE_DEFINITION_REPRESENTATION(#413,#414);
#413=PRODUCT_DEFINITION_SHAPE('',$,#416);
#414=SHAPE_REPRESENTATION('',(#230),#404);
#415=DESIGN_CONTEXT('part definition',#420,'design');
#416=PRODUCT_DEFINITION('DBF 55_99-01 Aufnahme Alicona',
'DBF 55_99-01 Aufnahme Alicona',#417,#415);
#417=PRODUCT_DEFINITION_FORMATION('',$,#422);
#418=PRODUCT_RELATED_PRODUCT_CATEGORY('DBF 55_99-01 Aufnahme Alicona',
'DBF 55_99-01 Aufnahme Alicona',(#422));
#419=APPLICATION_PROTOCOL_DEFINITION('international standard',
'ap203_configuration_controlled_3d_design_of_mechanical_parts_and_asse
mblies_mim_lf',2004,#420);
#420=APPLICATION_CONTEXT(
'Configuration Controlled 3D Design of Mechanical Parts and Assemblies');
#421=MECHANICAL_CONTEXT('part definition',#420,'mechanical');
#422=PRODUCT('DBF 55_99-01 Aufnahme Alicona',
'DBF 55_99-01 Aufnahme Alicona',$,(#421));
#423=PRESENTATION_STYLE_ASSIGNMENT((#424));
#424=SURFACE_STYLE_USAGE(.BOTH.,#425);
#425=SURFACE_SIDE_STYLE($,(#426));
#426=SURFACE_STYLE_FILL_AREA(#427);
#427=FILL_AREA_STYLE($,(#428));
#428=FILL_AREA_STYLE_COLOUR($,#429);
#429=COLOUR_RGB('',0.631372549019608,0.784313725490196,0.603921568627451);
ENDSEC;
END-ISO-10303-21;
