ISO-10303-21;
HEADER;
/* Generated by software containing ST-Developer
 * from STEP Tools, Inc. (www.steptools.com) 
 */

FILE_DESCRIPTION(
/* description */ ('Aufsatzbacken voll'),
/* implementation_level */ '2;1');

FILE_NAME(
/* name */ 
'Y:\\Futter\\Synchronisation Ordner\\(2) Dateien f\X\FCr Webseite\\DBF
160\\DBF160_00-15 Aufsatzbacken voll.stp',
/* time_stamp */ '2023-07-03T21:14:37+02:00',
/* author */ ('MKoch'),
/* organization */ (''),
/* preprocessor_version */ 'ST-DEVELOPER v15.2',
/* originating_system */ 'Autodesk Inventor 2014',
/* authorisation */ '');

FILE_SCHEMA (('CONFIG_CONTROL_DESIGN'));
ENDSEC;

DATA;
#10=MECHANICAL_DESIGN_GEOMETRIC_PRESENTATION_REPRESENTATION('',(#317,#313,
#316,#318,#315,#314,#323,#329,#327,#330,#319,#326,#331,#322,#324,#325,#328,
#320,#321,#334,#332,#335,#333),#597);
#11=SHAPE_REPRESENTATION_RELATIONSHIP('SRR','None',#606,#12);
#12=ADVANCED_BREP_SHAPE_REPRESENTATION($,(#359),#596);
#13=CONICAL_SURFACE('',#381,3.65,45.0000000000002);
#14=CONICAL_SURFACE('',#385,3.65,45.0000000000002);
#15=FACE_BOUND('',#66,.T.);
#16=FACE_BOUND('',#67,.T.);
#17=FACE_BOUND('',#68,.T.);
#18=FACE_BOUND('',#72,.T.);
#19=FACE_BOUND('',#73,.T.);
#20=FACE_BOUND('',#74,.T.);
#21=FACE_BOUND('',#76,.T.);
#22=FACE_BOUND('',#77,.T.);
#23=FACE_BOUND('',#78,.T.);
#24=FACE_BOUND('',#80,.T.);
#25=FACE_BOUND('',#82,.T.);
#26=FACE_BOUND('',#84,.T.);
#27=FACE_BOUND('',#86,.T.);
#28=FACE_BOUND('',#88,.T.);
#29=FACE_BOUND('',#90,.T.);
#30=FACE_BOUND('',#92,.T.);
#31=FACE_BOUND('',#94,.T.);
#32=FACE_BOUND('',#101,.T.);
#33=FACE_BOUND('',#102,.T.);
#34=PLANE('',#364);
#35=PLANE('',#368);
#36=PLANE('',#374);
#37=PLANE('',#379);
#38=PLANE('',#389);
#39=PLANE('',#392);
#40=PLANE('',#395);
#41=PLANE('',#396);
#42=PLANE('',#397);
#43=PLANE('',#398);
#44=PLANE('',#399);
#45=PLANE('',#400);
#46=FACE_OUTER_BOUND('',#65,.T.);
#47=FACE_OUTER_BOUND('',#69,.T.);
#48=FACE_OUTER_BOUND('',#70,.T.);
#49=FACE_OUTER_BOUND('',#71,.T.);
#50=FACE_OUTER_BOUND('',#75,.T.);
#51=FACE_OUTER_BOUND('',#79,.T.);
#52=FACE_OUTER_BOUND('',#81,.T.);
#53=FACE_OUTER_BOUND('',#83,.T.);
#54=FACE_OUTER_BOUND('',#85,.T.);
#55=FACE_OUTER_BOUND('',#87,.T.);
#56=FACE_OUTER_BOUND('',#89,.T.);
#57=FACE_OUTER_BOUND('',#91,.T.);
#58=FACE_OUTER_BOUND('',#93,.T.);
#59=FACE_OUTER_BOUND('',#95,.T.);
#60=FACE_OUTER_BOUND('',#96,.T.);
#61=FACE_OUTER_BOUND('',#97,.T.);
#62=FACE_OUTER_BOUND('',#98,.T.);
#63=FACE_OUTER_BOUND('',#99,.T.);
#64=FACE_OUTER_BOUND('',#100,.T.);
#65=EDGE_LOOP('',(#229,#230,#231,#232));
#66=EDGE_LOOP('',(#233));
#67=EDGE_LOOP('',(#234,#235,#236,#237,#238,#239,#240,#241));
#68=EDGE_LOOP('',(#242));
#69=EDGE_LOOP('',(#243,#244,#245,#246));
#70=EDGE_LOOP('',(#247,#248,#249,#250));
#71=EDGE_LOOP('',(#251));
#72=EDGE_LOOP('',(#252));
#73=EDGE_LOOP('',(#253));
#74=EDGE_LOOP('',(#254));
#75=EDGE_LOOP('',(#255));
#76=EDGE_LOOP('',(#256));
#77=EDGE_LOOP('',(#257));
#78=EDGE_LOOP('',(#258));
#79=EDGE_LOOP('',(#259));
#80=EDGE_LOOP('',(#260));
#81=EDGE_LOOP('',(#261));
#82=EDGE_LOOP('',(#262));
#83=EDGE_LOOP('',(#263));
#84=EDGE_LOOP('',(#264));
#85=EDGE_LOOP('',(#265));
#86=EDGE_LOOP('',(#266));
#87=EDGE_LOOP('',(#267));
#88=EDGE_LOOP('',(#268));
#89=EDGE_LOOP('',(#269));
#90=EDGE_LOOP('',(#270));
#91=EDGE_LOOP('',(#271));
#92=EDGE_LOOP('',(#272));
#93=EDGE_LOOP('',(#273));
#94=EDGE_LOOP('',(#274));
#95=EDGE_LOOP('',(#275,#276,#277,#278));
#96=EDGE_LOOP('',(#279,#280,#281,#282));
#97=EDGE_LOOP('',(#283,#284,#285,#286));
#98=EDGE_LOOP('',(#287,#288,#289,#290));
#99=EDGE_LOOP('',(#291,#292,#293,#294));
#100=EDGE_LOOP('',(#295,#296,#297,#298,#299,#300,#301,#302));
#101=EDGE_LOOP('',(#303));
#102=EDGE_LOOP('',(#304));
#103=LINE('',#509,#123);
#104=LINE('',#512,#124);
#105=LINE('',#517,#125);
#106=LINE('',#521,#126);
#107=LINE('',#523,#127);
#108=LINE('',#525,#128);
#109=LINE('',#527,#129);
#110=LINE('',#528,#130);
#111=LINE('',#533,#131);
#112=LINE('',#534,#132);
#113=LINE('',#538,#133);
#114=LINE('',#578,#134);
#115=LINE('',#579,#135);
#116=LINE('',#580,#136);
#117=LINE('',#583,#137);
#118=LINE('',#584,#138);
#119=LINE('',#587,#139);
#120=LINE('',#588,#140);
#121=LINE('',#590,#141);
#122=LINE('',#592,#142);
#123=VECTOR('',#407,25.);
#124=VECTOR('',#410,25.);
#125=VECTOR('',#415,14.);
#126=VECTOR('',#418,47.9481851445908);
#127=VECTOR('',#419,10.1036297108185);
#128=VECTOR('',#420,0.5);
#129=VECTOR('',#421,10.1036297108185);
#130=VECTOR('',#422,47.9481851445908);
#131=VECTOR('',#427,14.);
#132=VECTOR('',#428,25.);
#133=VECTOR('',#433,25.);
#134=VECTOR('',#484,10.1036297108185);
#135=VECTOR('',#485,25.);
#136=VECTOR('',#486,25.);
#137=VECTOR('',#489,0.5);
#138=VECTOR('',#490,25.);
#139=VECTOR('',#493,10.1036297108185);
#140=VECTOR('',#494,25.);
#141=VECTOR('',#497,47.9481851445908);
#142=VECTOR('',#500,47.9481851445908);
#143=CIRCLE('',#362,2.);
#144=CIRCLE('',#363,2.);
#145=CIRCLE('',#365,3.8);
#146=CIRCLE('',#366,2.);
#147=CIRCLE('',#367,3.8);
#148=CIRCLE('',#370,2.);
#149=CIRCLE('',#372,4.);
#150=CIRCLE('',#373,4.);
#151=CIRCLE('',#375,2.25);
#152=CIRCLE('',#377,4.);
#153=CIRCLE('',#378,4.);
#154=CIRCLE('',#380,2.25);
#155=CIRCLE('',#382,3.5);
#156=CIRCLE('',#384,3.5);
#157=CIRCLE('',#386,3.5);
#158=CIRCLE('',#388,3.5);
#159=CIRCLE('',#390,2.25);
#160=CIRCLE('',#393,2.25);
#161=VERTEX_POINT('',#505);
#162=VERTEX_POINT('',#506);
#163=VERTEX_POINT('',#508);
#164=VERTEX_POINT('',#510);
#165=VERTEX_POINT('',#514);
#166=VERTEX_POINT('',#516);
#167=VERTEX_POINT('',#518);
#168=VERTEX_POINT('',#520);
#169=VERTEX_POINT('',#522);
#170=VERTEX_POINT('',#524);
#171=VERTEX_POINT('',#526);
#172=VERTEX_POINT('',#529);
#173=VERTEX_POINT('',#532);
#174=VERTEX_POINT('',#536);
#175=VERTEX_POINT('',#540);
#176=VERTEX_POINT('',#542);
#177=VERTEX_POINT('',#545);
#178=VERTEX_POINT('',#548);
#179=VERTEX_POINT('',#550);
#180=VERTEX_POINT('',#553);
#181=VERTEX_POINT('',#556);
#182=VERTEX_POINT('',#559);
#183=VERTEX_POINT('',#562);
#184=VERTEX_POINT('',#565);
#185=VERTEX_POINT('',#568);
#186=VERTEX_POINT('',#572);
#187=VERTEX_POINT('',#576);
#188=VERTEX_POINT('',#577);
#189=VERTEX_POINT('',#582);
#190=VERTEX_POINT('',#586);
#191=EDGE_CURVE('',#161,#162,#143,.T.);
#192=EDGE_CURVE('',#162,#163,#103,.T.);
#193=EDGE_CURVE('',#163,#164,#144,.T.);
#194=EDGE_CURVE('',#164,#161,#104,.T.);
#195=EDGE_CURVE('',#165,#165,#145,.T.);
#196=EDGE_CURVE('',#161,#166,#105,.T.);
#197=EDGE_CURVE('',#167,#166,#146,.T.);
#198=EDGE_CURVE('',#167,#168,#106,.T.);
#199=EDGE_CURVE('',#168,#169,#107,.T.);
#200=EDGE_CURVE('',#169,#170,#108,.T.);
#201=EDGE_CURVE('',#170,#171,#109,.T.);
#202=EDGE_CURVE('',#171,#162,#110,.T.);
#203=EDGE_CURVE('',#172,#172,#147,.T.);
#204=EDGE_CURVE('',#173,#164,#111,.T.);
#205=EDGE_CURVE('',#166,#173,#112,.T.);
#206=EDGE_CURVE('',#173,#174,#148,.T.);
#207=EDGE_CURVE('',#174,#167,#113,.T.);
#208=EDGE_CURVE('',#175,#175,#149,.T.);
#209=EDGE_CURVE('',#176,#176,#150,.T.);
#210=EDGE_CURVE('',#177,#177,#151,.T.);
#211=EDGE_CURVE('',#178,#178,#152,.T.);
#212=EDGE_CURVE('',#179,#179,#153,.T.);
#213=EDGE_CURVE('',#180,#180,#154,.T.);
#214=EDGE_CURVE('',#181,#181,#155,.T.);
#215=EDGE_CURVE('',#182,#182,#156,.T.);
#216=EDGE_CURVE('',#183,#183,#157,.T.);
#217=EDGE_CURVE('',#184,#184,#158,.T.);
#218=EDGE_CURVE('',#185,#185,#159,.T.);
#219=EDGE_CURVE('',#186,#186,#160,.T.);
#220=EDGE_CURVE('',#187,#188,#114,.T.);
#221=EDGE_CURVE('',#187,#171,#115,.T.);
#222=EDGE_CURVE('',#188,#170,#116,.T.);
#223=EDGE_CURVE('',#188,#189,#117,.T.);
#224=EDGE_CURVE('',#189,#169,#118,.T.);
#225=EDGE_CURVE('',#189,#190,#119,.T.);
#226=EDGE_CURVE('',#190,#168,#120,.T.);
#227=EDGE_CURVE('',#190,#174,#121,.T.);
#228=EDGE_CURVE('',#163,#187,#122,.T.);
#229=ORIENTED_EDGE('',*,*,#191,.T.);
#230=ORIENTED_EDGE('',*,*,#192,.T.);
#231=ORIENTED_EDGE('',*,*,#193,.T.);
#232=ORIENTED_EDGE('',*,*,#194,.T.);
#233=ORIENTED_EDGE('',*,*,#195,.F.);
#234=ORIENTED_EDGE('',*,*,#191,.F.);
#235=ORIENTED_EDGE('',*,*,#196,.T.);
#236=ORIENTED_EDGE('',*,*,#197,.F.);
#237=ORIENTED_EDGE('',*,*,#198,.T.);
#238=ORIENTED_EDGE('',*,*,#199,.T.);
#239=ORIENTED_EDGE('',*,*,#200,.T.);
#240=ORIENTED_EDGE('',*,*,#201,.T.);
#241=ORIENTED_EDGE('',*,*,#202,.T.);
#242=ORIENTED_EDGE('',*,*,#203,.F.);
#243=ORIENTED_EDGE('',*,*,#194,.F.);
#244=ORIENTED_EDGE('',*,*,#204,.F.);
#245=ORIENTED_EDGE('',*,*,#205,.F.);
#246=ORIENTED_EDGE('',*,*,#196,.F.);
#247=ORIENTED_EDGE('',*,*,#197,.T.);
#248=ORIENTED_EDGE('',*,*,#205,.T.);
#249=ORIENTED_EDGE('',*,*,#206,.T.);
#250=ORIENTED_EDGE('',*,*,#207,.T.);
#251=ORIENTED_EDGE('',*,*,#208,.T.);
#252=ORIENTED_EDGE('',*,*,#209,.F.);
#253=ORIENTED_EDGE('',*,*,#210,.F.);
#254=ORIENTED_EDGE('',*,*,#208,.F.);
#255=ORIENTED_EDGE('',*,*,#211,.T.);
#256=ORIENTED_EDGE('',*,*,#212,.F.);
#257=ORIENTED_EDGE('',*,*,#213,.F.);
#258=ORIENTED_EDGE('',*,*,#211,.F.);
#259=ORIENTED_EDGE('',*,*,#214,.T.);
#260=ORIENTED_EDGE('',*,*,#203,.T.);
#261=ORIENTED_EDGE('',*,*,#215,.F.);
#262=ORIENTED_EDGE('',*,*,#214,.F.);
#263=ORIENTED_EDGE('',*,*,#216,.T.);
#264=ORIENTED_EDGE('',*,*,#195,.T.);
#265=ORIENTED_EDGE('',*,*,#217,.F.);
#266=ORIENTED_EDGE('',*,*,#216,.F.);
#267=ORIENTED_EDGE('',*,*,#215,.T.);
#268=ORIENTED_EDGE('',*,*,#218,.F.);
#269=ORIENTED_EDGE('',*,*,#213,.T.);
#270=ORIENTED_EDGE('',*,*,#218,.T.);
#271=ORIENTED_EDGE('',*,*,#217,.T.);
#272=ORIENTED_EDGE('',*,*,#219,.F.);
#273=ORIENTED_EDGE('',*,*,#210,.T.);
#274=ORIENTED_EDGE('',*,*,#219,.T.);
#275=ORIENTED_EDGE('',*,*,#220,.F.);
#276=ORIENTED_EDGE('',*,*,#221,.T.);
#277=ORIENTED_EDGE('',*,*,#201,.F.);
#278=ORIENTED_EDGE('',*,*,#222,.F.);
#279=ORIENTED_EDGE('',*,*,#223,.F.);
#280=ORIENTED_EDGE('',*,*,#222,.T.);
#281=ORIENTED_EDGE('',*,*,#200,.F.);
#282=ORIENTED_EDGE('',*,*,#224,.F.);
#283=ORIENTED_EDGE('',*,*,#225,.F.);
#284=ORIENTED_EDGE('',*,*,#224,.T.);
#285=ORIENTED_EDGE('',*,*,#199,.F.);
#286=ORIENTED_EDGE('',*,*,#226,.F.);
#287=ORIENTED_EDGE('',*,*,#207,.F.);
#288=ORIENTED_EDGE('',*,*,#227,.F.);
#289=ORIENTED_EDGE('',*,*,#226,.T.);
#290=ORIENTED_EDGE('',*,*,#198,.F.);
#291=ORIENTED_EDGE('',*,*,#192,.F.);
#292=ORIENTED_EDGE('',*,*,#202,.F.);
#293=ORIENTED_EDGE('',*,*,#221,.F.);
#294=ORIENTED_EDGE('',*,*,#228,.F.);
#295=ORIENTED_EDGE('',*,*,#193,.F.);
#296=ORIENTED_EDGE('',*,*,#228,.T.);
#297=ORIENTED_EDGE('',*,*,#220,.T.);
#298=ORIENTED_EDGE('',*,*,#223,.T.);
#299=ORIENTED_EDGE('',*,*,#225,.T.);
#300=ORIENTED_EDGE('',*,*,#227,.T.);
#301=ORIENTED_EDGE('',*,*,#206,.F.);
#302=ORIENTED_EDGE('',*,*,#204,.T.);
#303=ORIENTED_EDGE('',*,*,#209,.T.);
#304=ORIENTED_EDGE('',*,*,#212,.T.);
#305=CYLINDRICAL_SURFACE('',#361,2.);
#306=CYLINDRICAL_SURFACE('',#369,2.);
#307=CYLINDRICAL_SURFACE('',#371,4.);
#308=CYLINDRICAL_SURFACE('',#376,4.);
#309=CYLINDRICAL_SURFACE('',#383,3.5);
#310=CYLINDRICAL_SURFACE('',#387,3.5);
#311=CYLINDRICAL_SURFACE('',#391,2.25);
#312=CYLINDRICAL_SURFACE('',#394,2.25);
#313=STYLED_ITEM('',(#615),#336);
#314=STYLED_ITEM('',(#615),#337);
#315=STYLED_ITEM('',(#615),#338);
#316=STYLED_ITEM('',(#615),#339);
#317=STYLED_ITEM('',(#615),#340);
#318=STYLED_ITEM('',(#615),#341);
#319=STYLED_ITEM('',(#615),#342);
#320=STYLED_ITEM('',(#615),#343);
#321=STYLED_ITEM('',(#615),#344);
#322=STYLED_ITEM('',(#615),#345);
#323=STYLED_ITEM('',(#615),#346);
#324=STYLED_ITEM('',(#615),#347);
#325=STYLED_ITEM('',(#615),#348);
#326=STYLED_ITEM('',(#615),#349);
#327=STYLED_ITEM('',(#615),#350);
#328=STYLED_ITEM('',(#615),#351);
#329=STYLED_ITEM('',(#615),#352);
#330=STYLED_ITEM('',(#615),#353);
#331=STYLED_ITEM('',(#615),#354);
#332=STYLED_ITEM('',(#615),#355);
#333=STYLED_ITEM('',(#615),#356);
#334=STYLED_ITEM('',(#615),#357);
#335=STYLED_ITEM('',(#615),#359);
#336=ADVANCED_FACE('',(#46),#305,.T.);
#337=ADVANCED_FACE('',(#15,#16,#17),#34,.T.);
#338=ADVANCED_FACE('',(#47),#35,.T.);
#339=ADVANCED_FACE('',(#48),#306,.T.);
#340=ADVANCED_FACE('',(#49,#18),#307,.F.);
#341=ADVANCED_FACE('',(#19,#20),#36,.F.);
#342=ADVANCED_FACE('',(#50,#21),#308,.F.);
#343=ADVANCED_FACE('',(#22,#23),#37,.F.);
#344=ADVANCED_FACE('',(#51,#24),#13,.F.);
#345=ADVANCED_FACE('',(#52,#25),#309,.F.);
#346=ADVANCED_FACE('',(#53,#26),#14,.F.);
#347=ADVANCED_FACE('',(#54,#27),#310,.F.);
#348=ADVANCED_FACE('',(#55,#28),#38,.T.);
#349=ADVANCED_FACE('',(#56,#29),#311,.F.);
#350=ADVANCED_FACE('',(#57,#30),#39,.T.);
#351=ADVANCED_FACE('',(#58,#31),#312,.F.);
#352=ADVANCED_FACE('',(#59),#40,.T.);
#353=ADVANCED_FACE('',(#60),#41,.T.);
#354=ADVANCED_FACE('',(#61),#42,.T.);
#355=ADVANCED_FACE('',(#62),#43,.T.);
#356=ADVANCED_FACE('',(#63),#44,.T.);
#357=ADVANCED_FACE('',(#64,#32,#33),#45,.F.);
#358=CLOSED_SHELL('',(#336,#337,#338,#339,#340,#341,#342,#343,#344,#345,
#346,#347,#348,#349,#350,#351,#352,#353,#354,#355,#356,#357));
#359=MANIFOLD_SOLID_BREP('Volumenk\X\F6rper2',#358);
#360=AXIS2_PLACEMENT_3D('placement',#503,#401,#402);
#361=AXIS2_PLACEMENT_3D('',#504,#403,#404);
#362=AXIS2_PLACEMENT_3D('',#507,#405,#406);
#363=AXIS2_PLACEMENT_3D('',#511,#408,#409);
#364=AXIS2_PLACEMENT_3D('',#513,#411,#412);
#365=AXIS2_PLACEMENT_3D('',#515,#413,#414);
#366=AXIS2_PLACEMENT_3D('',#519,#416,#417);
#367=AXIS2_PLACEMENT_3D('',#530,#423,#424);
#368=AXIS2_PLACEMENT_3D('',#531,#425,#426);
#369=AXIS2_PLACEMENT_3D('',#535,#429,#430);
#370=AXIS2_PLACEMENT_3D('',#537,#431,#432);
#371=AXIS2_PLACEMENT_3D('',#539,#434,#435);
#372=AXIS2_PLACEMENT_3D('',#541,#436,#437);
#373=AXIS2_PLACEMENT_3D('',#543,#438,#439);
#374=AXIS2_PLACEMENT_3D('',#544,#440,#441);
#375=AXIS2_PLACEMENT_3D('',#546,#442,#443);
#376=AXIS2_PLACEMENT_3D('',#547,#444,#445);
#377=AXIS2_PLACEMENT_3D('',#549,#446,#447);
#378=AXIS2_PLACEMENT_3D('',#551,#448,#449);
#379=AXIS2_PLACEMENT_3D('',#552,#450,#451);
#380=AXIS2_PLACEMENT_3D('',#554,#452,#453);
#381=AXIS2_PLACEMENT_3D('',#555,#454,#455);
#382=AXIS2_PLACEMENT_3D('',#557,#456,#457);
#383=AXIS2_PLACEMENT_3D('',#558,#458,#459);
#384=AXIS2_PLACEMENT_3D('',#560,#460,#461);
#385=AXIS2_PLACEMENT_3D('',#561,#462,#463);
#386=AXIS2_PLACEMENT_3D('',#563,#464,#465);
#387=AXIS2_PLACEMENT_3D('',#564,#466,#467);
#388=AXIS2_PLACEMENT_3D('',#566,#468,#469);
#389=AXIS2_PLACEMENT_3D('',#567,#470,#471);
#390=AXIS2_PLACEMENT_3D('',#569,#472,#473);
#391=AXIS2_PLACEMENT_3D('',#570,#474,#475);
#392=AXIS2_PLACEMENT_3D('',#571,#476,#477);
#393=AXIS2_PLACEMENT_3D('',#573,#478,#479);
#394=AXIS2_PLACEMENT_3D('',#574,#480,#481);
#395=AXIS2_PLACEMENT_3D('',#575,#482,#483);
#396=AXIS2_PLACEMENT_3D('',#581,#487,#488);
#397=AXIS2_PLACEMENT_3D('',#585,#491,#492);
#398=AXIS2_PLACEMENT_3D('',#589,#495,#496);
#399=AXIS2_PLACEMENT_3D('',#591,#498,#499);
#400=AXIS2_PLACEMENT_3D('',#593,#501,#502);
#401=DIRECTION('axis',(0.,0.,1.));
#402=DIRECTION('refdir',(1.,0.,0.));
#403=DIRECTION('center_axis',(0.,0.,1.));
#404=DIRECTION('ref_axis',(-0.707106781186547,-0.707106781186548,0.));
#405=DIRECTION('center_axis',(0.,0.,-1.));
#406=DIRECTION('ref_axis',(-0.707106781186547,-0.707106781186548,0.));
#407=DIRECTION('',(0.,0.,-1.));
#408=DIRECTION('center_axis',(0.,0.,1.));
#409=DIRECTION('ref_axis',(-0.707106781186547,-0.707106781186548,0.));
#410=DIRECTION('',(0.,0.,1.));
#411=DIRECTION('center_axis',(0.,0.,1.));
#412=DIRECTION('ref_axis',(1.,0.,0.));
#413=DIRECTION('center_axis',(0.,0.,1.));
#414=DIRECTION('ref_axis',(-1.,0.,0.));
#415=DIRECTION('',(1.,0.,0.));
#416=DIRECTION('center_axis',(0.,0.,-1.));
#417=DIRECTION('ref_axis',(0.707106781186548,-0.707106781186547,0.));
#418=DIRECTION('',(0.,1.,0.));
#419=DIRECTION('',(-0.866025403784439,0.5,0.));
#420=DIRECTION('',(-1.,0.,0.));
#421=DIRECTION('',(-0.866025403784439,-0.5,0.));
#422=DIRECTION('',(0.,-1.,0.));
#423=DIRECTION('center_axis',(0.,0.,1.));
#424=DIRECTION('ref_axis',(-1.,0.,0.));
#425=DIRECTION('center_axis',(0.,-1.,0.));
#426=DIRECTION('ref_axis',(1.,0.,0.));
#427=DIRECTION('',(-1.,0.,0.));
#428=DIRECTION('',(0.,0.,-1.));
#429=DIRECTION('center_axis',(0.,0.,1.));
#430=DIRECTION('ref_axis',(0.707106781186548,-0.707106781186547,0.));
#431=DIRECTION('center_axis',(0.,0.,1.));
#432=DIRECTION('ref_axis',(0.707106781186548,-0.707106781186547,0.));
#433=DIRECTION('',(0.,0.,1.));
#434=DIRECTION('center_axis',(0.,0.,1.));
#435=DIRECTION('ref_axis',(1.,0.,0.));
#436=DIRECTION('center_axis',(0.,0.,1.));
#437=DIRECTION('ref_axis',(1.,0.,0.));
#438=DIRECTION('center_axis',(0.,0.,1.));
#439=DIRECTION('ref_axis',(1.,0.,0.));
#440=DIRECTION('center_axis',(0.,0.,1.));
#441=DIRECTION('ref_axis',(1.,0.,0.));
#442=DIRECTION('center_axis',(0.,0.,-1.));
#443=DIRECTION('ref_axis',(1.,0.,0.));
#444=DIRECTION('center_axis',(0.,0.,1.));
#445=DIRECTION('ref_axis',(1.,0.,0.));
#446=DIRECTION('center_axis',(0.,0.,1.));
#447=DIRECTION('ref_axis',(1.,0.,0.));
#448=DIRECTION('center_axis',(0.,0.,1.));
#449=DIRECTION('ref_axis',(1.,0.,0.));
#450=DIRECTION('center_axis',(0.,0.,1.));
#451=DIRECTION('ref_axis',(1.,0.,0.));
#452=DIRECTION('center_axis',(0.,0.,-1.));
#453=DIRECTION('ref_axis',(1.,0.,0.));
#454=DIRECTION('center_axis',(0.,0.,1.));
#455=DIRECTION('ref_axis',(-1.,0.,0.));
#456=DIRECTION('center_axis',(0.,0.,-1.));
#457=DIRECTION('ref_axis',(-1.,0.,0.));
#458=DIRECTION('center_axis',(0.,0.,1.));
#459=DIRECTION('ref_axis',(1.,0.,0.));
#460=DIRECTION('center_axis',(0.,0.,1.));
#461=DIRECTION('ref_axis',(1.,0.,0.));
#462=DIRECTION('center_axis',(0.,0.,1.));
#463=DIRECTION('ref_axis',(-1.,0.,0.));
#464=DIRECTION('center_axis',(0.,0.,-1.));
#465=DIRECTION('ref_axis',(-1.,0.,0.));
#466=DIRECTION('center_axis',(0.,0.,1.));
#467=DIRECTION('ref_axis',(1.,0.,0.));
#468=DIRECTION('center_axis',(0.,0.,1.));
#469=DIRECTION('ref_axis',(1.,0.,0.));
#470=DIRECTION('center_axis',(0.,0.,1.));
#471=DIRECTION('ref_axis',(1.,0.,0.));
#472=DIRECTION('center_axis',(0.,0.,1.));
#473=DIRECTION('ref_axis',(1.,0.,0.));
#474=DIRECTION('center_axis',(0.,0.,1.));
#475=DIRECTION('ref_axis',(1.,0.,0.));
#476=DIRECTION('center_axis',(0.,0.,1.));
#477=DIRECTION('ref_axis',(1.,0.,0.));
#478=DIRECTION('center_axis',(0.,0.,1.));
#479=DIRECTION('ref_axis',(1.,0.,0.));
#480=DIRECTION('center_axis',(0.,0.,1.));
#481=DIRECTION('ref_axis',(1.,0.,0.));
#482=DIRECTION('center_axis',(-0.5,0.866025403784439,0.));
#483=DIRECTION('ref_axis',(-0.866025403784439,-0.5,0.));
#484=DIRECTION('',(0.866025403784439,0.5,0.));
#485=DIRECTION('',(0.,0.,1.));
#486=DIRECTION('',(0.,0.,1.));
#487=DIRECTION('center_axis',(0.,1.,0.));
#488=DIRECTION('ref_axis',(-1.,0.,0.));
#489=DIRECTION('',(1.,0.,0.));
#490=DIRECTION('',(0.,0.,1.));
#491=DIRECTION('center_axis',(0.5,0.866025403784439,0.));
#492=DIRECTION('ref_axis',(-0.866025403784439,0.5,0.));
#493=DIRECTION('',(0.866025403784439,-0.5,0.));
#494=DIRECTION('',(0.,0.,1.));
#495=DIRECTION('center_axis',(1.,0.,0.));
#496=DIRECTION('ref_axis',(0.,1.,0.));
#497=DIRECTION('',(0.,-1.,0.));
#498=DIRECTION('center_axis',(-1.,0.,0.));
#499=DIRECTION('ref_axis',(0.,-1.,0.));
#500=DIRECTION('',(0.,1.,0.));
#501=DIRECTION('center_axis',(0.,0.,1.));
#502=DIRECTION('ref_axis',(1.,0.,0.));
#503=CARTESIAN_POINT('',(0.,0.,0.));
#504=CARTESIAN_POINT('Origin',(2.,2.,0.));
#505=CARTESIAN_POINT('',(2.,0.,25.));
#506=CARTESIAN_POINT('',(0.,2.,25.));
#507=CARTESIAN_POINT('Origin',(2.,2.,25.));
#508=CARTESIAN_POINT('',(0.,2.,0.));
#509=CARTESIAN_POINT('',(0.,2.,0.));
#510=CARTESIAN_POINT('',(2.,0.,0.));
#511=CARTESIAN_POINT('Origin',(2.,2.,0.));
#512=CARTESIAN_POINT('',(2.,0.,0.));
#513=CARTESIAN_POINT('Origin',(9.,25.8483764691917,25.));
#514=CARTESIAN_POINT('',(12.8,47.5,25.));
#515=CARTESIAN_POINT('Origin',(9.,47.5,25.));
#516=CARTESIAN_POINT('',(16.,0.,25.));
#517=CARTESIAN_POINT('',(18.,0.,25.));
#518=CARTESIAN_POINT('',(18.,2.,25.));
#519=CARTESIAN_POINT('Origin',(16.,2.,25.));
#520=CARTESIAN_POINT('',(18.,49.9481851445908,25.));
#521=CARTESIAN_POINT('',(18.,49.9481851445908,25.));
#522=CARTESIAN_POINT('',(9.25,55.,25.));
#523=CARTESIAN_POINT('',(9.25,55.,25.));
#524=CARTESIAN_POINT('',(8.75,55.,25.));
#525=CARTESIAN_POINT('',(8.75,55.,25.));
#526=CARTESIAN_POINT('',(0.,49.9481851445908,25.));
#527=CARTESIAN_POINT('',(0.,49.9481851445908,25.));
#528=CARTESIAN_POINT('',(0.,0.,25.));
#529=CARTESIAN_POINT('',(12.8,17.5,25.));
#530=CARTESIAN_POINT('Origin',(9.,17.5,25.));
#531=CARTESIAN_POINT('Origin',(0.,0.,0.));
#532=CARTESIAN_POINT('',(16.,0.,0.));
#533=CARTESIAN_POINT('',(18.,0.,0.));
#534=CARTESIAN_POINT('',(16.,0.,0.));
#535=CARTESIAN_POINT('Origin',(16.,2.,0.));
#536=CARTESIAN_POINT('',(18.,2.,0.));
#537=CARTESIAN_POINT('Origin',(16.,2.,0.));
#538=CARTESIAN_POINT('',(18.,2.,0.));
#539=CARTESIAN_POINT('Origin',(9.,47.5,0.));
#540=CARTESIAN_POINT('',(5.,47.5,20.));
#541=CARTESIAN_POINT('Origin',(9.,47.5,20.));
#542=CARTESIAN_POINT('',(5.,47.5,0.));
#543=CARTESIAN_POINT('Origin',(9.,47.5,0.));
#544=CARTESIAN_POINT('Origin',(9.,47.5,20.));
#545=CARTESIAN_POINT('',(6.75,47.5,20.));
#546=CARTESIAN_POINT('Origin',(9.,47.5,20.));
#547=CARTESIAN_POINT('Origin',(9.,17.5,0.));
#548=CARTESIAN_POINT('',(5.,17.5,20.));
#549=CARTESIAN_POINT('Origin',(9.,17.5,20.));
#550=CARTESIAN_POINT('',(5.,17.5,0.));
#551=CARTESIAN_POINT('Origin',(9.,17.5,0.));
#552=CARTESIAN_POINT('Origin',(9.,17.5,20.));
#553=CARTESIAN_POINT('',(6.75,17.5,20.));
#554=CARTESIAN_POINT('Origin',(9.,17.5,20.));
#555=CARTESIAN_POINT('Origin',(9.,17.5,24.85));
#556=CARTESIAN_POINT('',(12.5,17.5,24.7));
#557=CARTESIAN_POINT('Origin',(9.,17.5,24.7));
#558=CARTESIAN_POINT('Origin',(9.,17.5,23.4));
#559=CARTESIAN_POINT('',(12.5,17.5,21.8));
#560=CARTESIAN_POINT('Origin',(9.,17.5,21.8));
#561=CARTESIAN_POINT('Origin',(9.,47.5,24.85));
#562=CARTESIAN_POINT('',(12.5,47.5,24.7));
#563=CARTESIAN_POINT('Origin',(9.,47.5,24.7));
#564=CARTESIAN_POINT('Origin',(9.,47.5,23.4));
#565=CARTESIAN_POINT('',(12.5,47.5,21.8));
#566=CARTESIAN_POINT('Origin',(9.,47.5,21.8));
#567=CARTESIAN_POINT('Origin',(9.,17.5,21.8));
#568=CARTESIAN_POINT('',(6.75,17.5,21.8));
#569=CARTESIAN_POINT('Origin',(9.,17.5,21.8));
#570=CARTESIAN_POINT('Origin',(9.,17.5,-38.0396700498979));
#571=CARTESIAN_POINT('Origin',(9.,47.5,21.8));
#572=CARTESIAN_POINT('',(6.75,47.5,21.8));
#573=CARTESIAN_POINT('Origin',(9.,47.5,21.8));
#574=CARTESIAN_POINT('Origin',(9.,47.5,-38.0396700498979));
#575=CARTESIAN_POINT('Origin',(8.75,55.,0.));
#576=CARTESIAN_POINT('',(0.,49.9481851445908,0.));
#577=CARTESIAN_POINT('',(8.75,55.,0.));
#578=CARTESIAN_POINT('',(0.,49.9481851445908,0.));
#579=CARTESIAN_POINT('',(0.,49.9481851445908,0.));
#580=CARTESIAN_POINT('',(8.75,55.,0.));
#581=CARTESIAN_POINT('Origin',(9.25,55.,0.));
#582=CARTESIAN_POINT('',(9.25,55.,0.));
#583=CARTESIAN_POINT('',(8.75,55.,0.));
#584=CARTESIAN_POINT('',(9.25,55.,0.));
#585=CARTESIAN_POINT('Origin',(18.,49.9481851445908,0.));
#586=CARTESIAN_POINT('',(18.,49.9481851445908,0.));
#587=CARTESIAN_POINT('',(9.25,55.,0.));
#588=CARTESIAN_POINT('',(18.,49.9481851445908,0.));
#589=CARTESIAN_POINT('Origin',(18.,0.,0.));
#590=CARTESIAN_POINT('',(18.,49.9481851445908,0.));
#591=CARTESIAN_POINT('Origin',(0.,49.9481851445908,0.));
#592=CARTESIAN_POINT('',(0.,0.,0.));
#593=CARTESIAN_POINT('Origin',(9.,25.8483764691917,0.));
#594=UNCERTAINTY_MEASURE_WITH_UNIT(LENGTH_MEASURE(0.01),#598,
'DISTANCE_ACCURACY_VALUE',
'Maximum model space distance between geometric entities at asserted c
onnectivities');
#595=UNCERTAINTY_MEASURE_WITH_UNIT(LENGTH_MEASURE(1.E-006),#598,
'DISTANCE_ACCURACY_VALUE',
'Maximum model space distance between geometric entities at asserted c
onnectivities');
#596=(
GEOMETRIC_REPRESENTATION_CONTEXT(3)
GLOBAL_UNCERTAINTY_ASSIGNED_CONTEXT((#594))
GLOBAL_UNIT_ASSIGNED_CONTEXT((#598,#601,#599))
REPRESENTATION_CONTEXT('','3D')
);
#597=(
GEOMETRIC_REPRESENTATION_CONTEXT(3)
GLOBAL_UNCERTAINTY_ASSIGNED_CONTEXT((#595))
GLOBAL_UNIT_ASSIGNED_CONTEXT((#598,#601,#599))
REPRESENTATION_CONTEXT('','3D')
);
#598=(
LENGTH_UNIT()
NAMED_UNIT(*)
SI_UNIT(.MILLI.,.METRE.)
);
#599=(
NAMED_UNIT(*)
SI_UNIT($,.STERADIAN.)
SOLID_ANGLE_UNIT()
);
#600=DIMENSIONAL_EXPONENTS(0.,0.,0.,0.,0.,0.,0.);
#601=(
CONVERSION_BASED_UNIT('degree',#603)
NAMED_UNIT(#600)
PLANE_ANGLE_UNIT()
);
#602=(
NAMED_UNIT(*)
PLANE_ANGLE_UNIT()
SI_UNIT($,.RADIAN.)
);
#603=PLANE_ANGLE_MEASURE_WITH_UNIT(PLANE_ANGLE_MEASURE(0.01745329252),#602);
#604=SHAPE_DEFINITION_REPRESENTATION(#605,#606);
#605=PRODUCT_DEFINITION_SHAPE('',$,#608);
#606=SHAPE_REPRESENTATION('',(#360),#596);
#607=DESIGN_CONTEXT('part definition',#612,'design');
#608=PRODUCT_DEFINITION('DBF160_00-15 Aufsatzbacken voll',
'DBF160_00-15 Aufsatzbacken voll',#609,#607);
#609=PRODUCT_DEFINITION_FORMATION('',$,#614);
#610=PRODUCT_RELATED_PRODUCT_CATEGORY('DBF160_00-15 Aufsatzbacken voll',
'DBF160_00-15 Aufsatzbacken voll',(#614));
#611=APPLICATION_PROTOCOL_DEFINITION('international standard',
'ap203_configuration_controlled_3d_design_of_mechanical_parts_and_asse
mblies_mim_lf',2004,#612);
#612=APPLICATION_CONTEXT(
'Configuration Controlled 3D Design of Mechanical Parts and Assemblies');
#613=MECHANICAL_CONTEXT('part definition',#612,'mechanical');
#614=PRODUCT('DBF160_00-15 Aufsatzbacken voll',
'DBF160_00-15 Aufsatzbacken voll',$,(#613));
#615=PRESENTATION_STYLE_ASSIGNMENT((#616));
#616=SURFACE_STYLE_USAGE(.BOTH.,#617);
#617=SURFACE_SIDE_STYLE($,(#618));
#618=SURFACE_STYLE_FILL_AREA(#619);
#619=FILL_AREA_STYLE($,(#620));
#620=FILL_AREA_STYLE_COLOUR($,#621);
#621=COLOUR_RGB('',0.713725490196078,0.427450980392157,0.176470588235294);
ENDSEC;
END-ISO-10303-21;
