ISO-10303-21;
HEADER;
/* Generated by software containing ST-Developer
 * from STEP Tools, Inc. (www.steptools.com) 
 */

FILE_DESCRIPTION(
/* description */ ('Aufsatzbacken voll'),
/* implementation_level */ '2;1');

FILE_NAME(
/* name */ 
'Y:\\Futter\\Synchronisation Ordner\\(2) Dateien f\X\FCr Webseite\\DBF
63\\DBF63_00-14 Aufsatzbacken voll.stp',
/* time_stamp */ '2023-07-03T21:10:09+02:00',
/* author */ ('MKoch'),
/* organization */ (''),
/* preprocessor_version */ 'ST-DEVELOPER v15.2',
/* originating_system */ 'Autodesk Inventor 2014',
/* authorisation */ '');

FILE_SCHEMA (('CONFIG_CONTROL_DESIGN'));
ENDSEC;

DATA;
#10=MECHANICAL_DESIGN_GEOMETRIC_PRESENTATION_REPRESENTATION('',(#315,#317,
#316,#319,#321,#318,#320,#325,#322,#324,#323,#328,#334,#330,#333,#329,#331,
#332,#335,#327,#326,#313,#314),#597);
#11=SHAPE_REPRESENTATION_RELATIONSHIP('SRR','None',#606,#12);
#12=ADVANCED_BREP_SHAPE_REPRESENTATION($,(#359),#596);
#13=CYLINDRICAL_SURFACE('',#368,2.5);
#14=CYLINDRICAL_SURFACE('',#372,2.5);
#15=CYLINDRICAL_SURFACE('',#374,2.);
#16=CYLINDRICAL_SURFACE('',#381,2.);
#17=CYLINDRICAL_SURFACE('',#382,2.35);
#18=CYLINDRICAL_SURFACE('',#386,2.35);
#19=CYLINDRICAL_SURFACE('',#392,1.35);
#20=CYLINDRICAL_SURFACE('',#395,1.35);
#21=LINE('',#516,#41);
#22=LINE('',#520,#42);
#23=LINE('',#522,#43);
#24=LINE('',#524,#44);
#25=LINE('',#526,#45);
#26=LINE('',#527,#46);
#27=LINE('',#539,#47);
#28=LINE('',#542,#48);
#29=LINE('',#545,#49);
#30=LINE('',#546,#50);
#31=LINE('',#553,#51);
#32=LINE('',#555,#52);
#33=LINE('',#557,#53);
#34=LINE('',#559,#54);
#35=LINE('',#561,#55);
#36=LINE('',#564,#56);
#37=LINE('',#586,#57);
#38=LINE('',#587,#58);
#39=LINE('',#589,#59);
#40=LINE('',#591,#60);
#41=VECTOR('',#415,5.);
#42=VECTOR('',#418,20.0000733344089);
#43=VECTOR('',#419,4.99985333118216);
#44=VECTOR('',#420,0.34);
#45=VECTOR('',#421,4.99985333118216);
#46=VECTOR('',#422,20.0000733344089);
#47=VECTOR('',#437,14.5);
#48=VECTOR('',#440,14.5);
#49=VECTOR('',#443,5.);
#50=VECTOR('',#444,14.5);
#51=VECTOR('',#451,20.0000733344089);
#52=VECTOR('',#452,4.99985333118216);
#53=VECTOR('',#453,0.34);
#54=VECTOR('',#454,4.99985333118216);
#55=VECTOR('',#455,20.0000733344089);
#56=VECTOR('',#460,14.5);
#57=VECTOR('',#491,14.5);
#58=VECTOR('',#492,14.5);
#59=VECTOR('',#495,14.5);
#60=VECTOR('',#498,14.5);
#61=PLANE('',#364);
#62=PLANE('',#376);
#63=PLANE('',#377);
#64=PLANE('',#384);
#65=PLANE('',#388);
#66=PLANE('',#390);
#67=PLANE('',#393);
#68=PLANE('',#396);
#69=PLANE('',#397);
#70=PLANE('',#398);
#71=PLANE('',#399);
#72=PLANE('',#400);
#73=FACE_BOUND('',#112,.T.);
#74=FACE_BOUND('',#113,.T.);
#75=FACE_BOUND('',#114,.T.);
#76=FACE_BOUND('',#115,.T.);
#77=FACE_BOUND('',#117,.T.);
#78=FACE_BOUND('',#119,.T.);
#79=FACE_BOUND('',#121,.T.);
#80=FACE_BOUND('',#124,.T.);
#81=FACE_BOUND('',#125,.T.);
#82=FACE_BOUND('',#126,.T.);
#83=FACE_BOUND('',#129,.T.);
#84=FACE_BOUND('',#130,.T.);
#85=FACE_BOUND('',#131,.T.);
#86=FACE_BOUND('',#133,.T.);
#87=FACE_BOUND('',#134,.T.);
#88=FACE_BOUND('',#135,.T.);
#89=FACE_BOUND('',#137,.T.);
#90=FACE_BOUND('',#139,.T.);
#91=FACE_BOUND('',#141,.T.);
#92=FACE_BOUND('',#143,.T.);
#93=FACE_OUTER_BOUND('',#111,.T.);
#94=FACE_OUTER_BOUND('',#116,.T.);
#95=FACE_OUTER_BOUND('',#118,.T.);
#96=FACE_OUTER_BOUND('',#120,.T.);
#97=FACE_OUTER_BOUND('',#122,.T.);
#98=FACE_OUTER_BOUND('',#123,.T.);
#99=FACE_OUTER_BOUND('',#127,.T.);
#100=FACE_OUTER_BOUND('',#128,.T.);
#101=FACE_OUTER_BOUND('',#132,.T.);
#102=FACE_OUTER_BOUND('',#136,.T.);
#103=FACE_OUTER_BOUND('',#138,.T.);
#104=FACE_OUTER_BOUND('',#140,.T.);
#105=FACE_OUTER_BOUND('',#142,.T.);
#106=FACE_OUTER_BOUND('',#144,.T.);
#107=FACE_OUTER_BOUND('',#145,.T.);
#108=FACE_OUTER_BOUND('',#146,.T.);
#109=FACE_OUTER_BOUND('',#147,.T.);
#110=FACE_OUTER_BOUND('',#148,.T.);
#111=EDGE_LOOP('',(#235));
#112=EDGE_LOOP('',(#236));
#113=EDGE_LOOP('',(#237));
#114=EDGE_LOOP('',(#238,#239,#240,#241,#242,#243,#244,#245));
#115=EDGE_LOOP('',(#246));
#116=EDGE_LOOP('',(#247));
#117=EDGE_LOOP('',(#248));
#118=EDGE_LOOP('',(#249));
#119=EDGE_LOOP('',(#250));
#120=EDGE_LOOP('',(#251));
#121=EDGE_LOOP('',(#252));
#122=EDGE_LOOP('',(#253,#254,#255,#256));
#123=EDGE_LOOP('',(#257,#258,#259,#260));
#124=EDGE_LOOP('',(#261));
#125=EDGE_LOOP('',(#262));
#126=EDGE_LOOP('',(#263,#264,#265,#266,#267,#268,#269,#270));
#127=EDGE_LOOP('',(#271,#272,#273,#274));
#128=EDGE_LOOP('',(#275));
#129=EDGE_LOOP('',(#276));
#130=EDGE_LOOP('',(#277));
#131=EDGE_LOOP('',(#278));
#132=EDGE_LOOP('',(#279));
#133=EDGE_LOOP('',(#280));
#134=EDGE_LOOP('',(#281));
#135=EDGE_LOOP('',(#282));
#136=EDGE_LOOP('',(#283));
#137=EDGE_LOOP('',(#284));
#138=EDGE_LOOP('',(#285));
#139=EDGE_LOOP('',(#286));
#140=EDGE_LOOP('',(#287));
#141=EDGE_LOOP('',(#288));
#142=EDGE_LOOP('',(#289));
#143=EDGE_LOOP('',(#290));
#144=EDGE_LOOP('',(#291,#292,#293,#294));
#145=EDGE_LOOP('',(#295,#296,#297,#298));
#146=EDGE_LOOP('',(#299,#300,#301,#302));
#147=EDGE_LOOP('',(#303,#304,#305,#306));
#148=EDGE_LOOP('',(#307,#308,#309,#310));
#149=CIRCLE('',#362,2.5);
#150=CIRCLE('',#363,2.8);
#151=CIRCLE('',#365,2.8);
#152=CIRCLE('',#366,2.);
#153=CIRCLE('',#367,2.);
#154=CIRCLE('',#369,2.5);
#155=CIRCLE('',#371,2.5);
#156=CIRCLE('',#373,2.5);
#157=CIRCLE('',#375,2.);
#158=CIRCLE('',#378,2.35);
#159=CIRCLE('',#379,2.35);
#160=CIRCLE('',#380,2.);
#161=CIRCLE('',#383,2.35);
#162=CIRCLE('',#385,1.35);
#163=CIRCLE('',#387,2.35);
#164=CIRCLE('',#389,1.35);
#165=CIRCLE('',#391,1.35);
#166=CIRCLE('',#394,1.35);
#167=VERTEX_POINT('',#505);
#168=VERTEX_POINT('',#507);
#169=VERTEX_POINT('',#510);
#170=VERTEX_POINT('',#512);
#171=VERTEX_POINT('',#513);
#172=VERTEX_POINT('',#515);
#173=VERTEX_POINT('',#517);
#174=VERTEX_POINT('',#519);
#175=VERTEX_POINT('',#521);
#176=VERTEX_POINT('',#523);
#177=VERTEX_POINT('',#525);
#178=VERTEX_POINT('',#529);
#179=VERTEX_POINT('',#532);
#180=VERTEX_POINT('',#535);
#181=VERTEX_POINT('',#538);
#182=VERTEX_POINT('',#540);
#183=VERTEX_POINT('',#544);
#184=VERTEX_POINT('',#548);
#185=VERTEX_POINT('',#550);
#186=VERTEX_POINT('',#552);
#187=VERTEX_POINT('',#554);
#188=VERTEX_POINT('',#556);
#189=VERTEX_POINT('',#558);
#190=VERTEX_POINT('',#560);
#191=VERTEX_POINT('',#566);
#192=VERTEX_POINT('',#569);
#193=VERTEX_POINT('',#572);
#194=VERTEX_POINT('',#575);
#195=VERTEX_POINT('',#578);
#196=VERTEX_POINT('',#582);
#197=EDGE_CURVE('',#167,#167,#149,.T.);
#198=EDGE_CURVE('',#168,#168,#150,.T.);
#199=EDGE_CURVE('',#169,#169,#151,.T.);
#200=EDGE_CURVE('',#170,#171,#152,.T.);
#201=EDGE_CURVE('',#170,#172,#21,.T.);
#202=EDGE_CURVE('',#173,#172,#153,.T.);
#203=EDGE_CURVE('',#173,#174,#22,.T.);
#204=EDGE_CURVE('',#174,#175,#23,.T.);
#205=EDGE_CURVE('',#175,#176,#24,.T.);
#206=EDGE_CURVE('',#176,#177,#25,.T.);
#207=EDGE_CURVE('',#177,#171,#26,.T.);
#208=EDGE_CURVE('',#178,#178,#154,.T.);
#209=EDGE_CURVE('',#179,#179,#155,.T.);
#210=EDGE_CURVE('',#180,#180,#156,.T.);
#211=EDGE_CURVE('',#171,#181,#27,.T.);
#212=EDGE_CURVE('',#181,#182,#157,.T.);
#213=EDGE_CURVE('',#182,#170,#28,.T.);
#214=EDGE_CURVE('',#183,#182,#29,.T.);
#215=EDGE_CURVE('',#172,#183,#30,.T.);
#216=EDGE_CURVE('',#184,#184,#158,.T.);
#217=EDGE_CURVE('',#185,#185,#159,.T.);
#218=EDGE_CURVE('',#181,#186,#31,.T.);
#219=EDGE_CURVE('',#186,#187,#32,.T.);
#220=EDGE_CURVE('',#187,#188,#33,.T.);
#221=EDGE_CURVE('',#188,#189,#34,.T.);
#222=EDGE_CURVE('',#189,#190,#35,.T.);
#223=EDGE_CURVE('',#183,#190,#160,.T.);
#224=EDGE_CURVE('',#190,#173,#36,.T.);
#225=EDGE_CURVE('',#191,#191,#161,.T.);
#226=EDGE_CURVE('',#192,#192,#162,.T.);
#227=EDGE_CURVE('',#193,#193,#163,.T.);
#228=EDGE_CURVE('',#194,#194,#164,.T.);
#229=EDGE_CURVE('',#195,#195,#165,.T.);
#230=EDGE_CURVE('',#196,#196,#166,.T.);
#231=EDGE_CURVE('',#186,#177,#37,.T.);
#232=EDGE_CURVE('',#187,#176,#38,.T.);
#233=EDGE_CURVE('',#188,#175,#39,.T.);
#234=EDGE_CURVE('',#189,#174,#40,.T.);
#235=ORIENTED_EDGE('',*,*,#197,.T.);
#236=ORIENTED_EDGE('',*,*,#198,.T.);
#237=ORIENTED_EDGE('',*,*,#199,.F.);
#238=ORIENTED_EDGE('',*,*,#200,.F.);
#239=ORIENTED_EDGE('',*,*,#201,.T.);
#240=ORIENTED_EDGE('',*,*,#202,.F.);
#241=ORIENTED_EDGE('',*,*,#203,.T.);
#242=ORIENTED_EDGE('',*,*,#204,.T.);
#243=ORIENTED_EDGE('',*,*,#205,.T.);
#244=ORIENTED_EDGE('',*,*,#206,.T.);
#245=ORIENTED_EDGE('',*,*,#207,.T.);
#246=ORIENTED_EDGE('',*,*,#198,.F.);
#247=ORIENTED_EDGE('',*,*,#208,.F.);
#248=ORIENTED_EDGE('',*,*,#197,.F.);
#249=ORIENTED_EDGE('',*,*,#209,.T.);
#250=ORIENTED_EDGE('',*,*,#199,.T.);
#251=ORIENTED_EDGE('',*,*,#210,.F.);
#252=ORIENTED_EDGE('',*,*,#209,.F.);
#253=ORIENTED_EDGE('',*,*,#200,.T.);
#254=ORIENTED_EDGE('',*,*,#211,.T.);
#255=ORIENTED_EDGE('',*,*,#212,.T.);
#256=ORIENTED_EDGE('',*,*,#213,.T.);
#257=ORIENTED_EDGE('',*,*,#213,.F.);
#258=ORIENTED_EDGE('',*,*,#214,.F.);
#259=ORIENTED_EDGE('',*,*,#215,.F.);
#260=ORIENTED_EDGE('',*,*,#201,.F.);
#261=ORIENTED_EDGE('',*,*,#216,.T.);
#262=ORIENTED_EDGE('',*,*,#217,.T.);
#263=ORIENTED_EDGE('',*,*,#212,.F.);
#264=ORIENTED_EDGE('',*,*,#218,.T.);
#265=ORIENTED_EDGE('',*,*,#219,.T.);
#266=ORIENTED_EDGE('',*,*,#220,.T.);
#267=ORIENTED_EDGE('',*,*,#221,.T.);
#268=ORIENTED_EDGE('',*,*,#222,.T.);
#269=ORIENTED_EDGE('',*,*,#223,.F.);
#270=ORIENTED_EDGE('',*,*,#214,.T.);
#271=ORIENTED_EDGE('',*,*,#202,.T.);
#272=ORIENTED_EDGE('',*,*,#215,.T.);
#273=ORIENTED_EDGE('',*,*,#223,.T.);
#274=ORIENTED_EDGE('',*,*,#224,.T.);
#275=ORIENTED_EDGE('',*,*,#225,.T.);
#276=ORIENTED_EDGE('',*,*,#216,.F.);
#277=ORIENTED_EDGE('',*,*,#226,.F.);
#278=ORIENTED_EDGE('',*,*,#225,.F.);
#279=ORIENTED_EDGE('',*,*,#227,.T.);
#280=ORIENTED_EDGE('',*,*,#217,.F.);
#281=ORIENTED_EDGE('',*,*,#228,.F.);
#282=ORIENTED_EDGE('',*,*,#227,.F.);
#283=ORIENTED_EDGE('',*,*,#210,.T.);
#284=ORIENTED_EDGE('',*,*,#229,.F.);
#285=ORIENTED_EDGE('',*,*,#226,.T.);
#286=ORIENTED_EDGE('',*,*,#229,.T.);
#287=ORIENTED_EDGE('',*,*,#208,.T.);
#288=ORIENTED_EDGE('',*,*,#230,.F.);
#289=ORIENTED_EDGE('',*,*,#228,.T.);
#290=ORIENTED_EDGE('',*,*,#230,.T.);
#291=ORIENTED_EDGE('',*,*,#219,.F.);
#292=ORIENTED_EDGE('',*,*,#231,.T.);
#293=ORIENTED_EDGE('',*,*,#206,.F.);
#294=ORIENTED_EDGE('',*,*,#232,.F.);
#295=ORIENTED_EDGE('',*,*,#220,.F.);
#296=ORIENTED_EDGE('',*,*,#232,.T.);
#297=ORIENTED_EDGE('',*,*,#205,.F.);
#298=ORIENTED_EDGE('',*,*,#233,.F.);
#299=ORIENTED_EDGE('',*,*,#221,.F.);
#300=ORIENTED_EDGE('',*,*,#233,.T.);
#301=ORIENTED_EDGE('',*,*,#204,.F.);
#302=ORIENTED_EDGE('',*,*,#234,.F.);
#303=ORIENTED_EDGE('',*,*,#224,.F.);
#304=ORIENTED_EDGE('',*,*,#222,.F.);
#305=ORIENTED_EDGE('',*,*,#234,.T.);
#306=ORIENTED_EDGE('',*,*,#203,.F.);
#307=ORIENTED_EDGE('',*,*,#211,.F.);
#308=ORIENTED_EDGE('',*,*,#207,.F.);
#309=ORIENTED_EDGE('',*,*,#231,.F.);
#310=ORIENTED_EDGE('',*,*,#218,.F.);
#311=CONICAL_SURFACE('',#361,2.65,45.);
#312=CONICAL_SURFACE('',#370,2.65,45.);
#313=STYLED_ITEM('',(#615),#336);
#314=STYLED_ITEM('',(#615),#337);
#315=STYLED_ITEM('',(#615),#338);
#316=STYLED_ITEM('',(#615),#339);
#317=STYLED_ITEM('',(#615),#340);
#318=STYLED_ITEM('',(#615),#341);
#319=STYLED_ITEM('',(#615),#342);
#320=STYLED_ITEM('',(#615),#343);
#321=STYLED_ITEM('',(#615),#344);
#322=STYLED_ITEM('',(#615),#345);
#323=STYLED_ITEM('',(#615),#346);
#324=STYLED_ITEM('',(#615),#347);
#325=STYLED_ITEM('',(#615),#348);
#326=STYLED_ITEM('',(#615),#349);
#327=STYLED_ITEM('',(#615),#350);
#328=STYLED_ITEM('',(#615),#351);
#329=STYLED_ITEM('',(#615),#352);
#330=STYLED_ITEM('',(#615),#353);
#331=STYLED_ITEM('',(#615),#354);
#332=STYLED_ITEM('',(#615),#355);
#333=STYLED_ITEM('',(#615),#356);
#334=STYLED_ITEM('',(#615),#357);
#335=STYLED_ITEM('',(#615),#359);
#336=ADVANCED_FACE('',(#93,#73),#311,.F.);
#337=ADVANCED_FACE('',(#74,#75,#76),#61,.T.);
#338=ADVANCED_FACE('',(#94,#77),#13,.F.);
#339=ADVANCED_FACE('',(#95,#78),#312,.F.);
#340=ADVANCED_FACE('',(#96,#79),#14,.F.);
#341=ADVANCED_FACE('',(#97),#15,.T.);
#342=ADVANCED_FACE('',(#98),#62,.T.);
#343=ADVANCED_FACE('',(#80,#81,#82),#63,.F.);
#344=ADVANCED_FACE('',(#99),#16,.T.);
#345=ADVANCED_FACE('',(#100,#83),#17,.F.);
#346=ADVANCED_FACE('',(#84,#85),#64,.F.);
#347=ADVANCED_FACE('',(#101,#86),#18,.F.);
#348=ADVANCED_FACE('',(#87,#88),#65,.F.);
#349=ADVANCED_FACE('',(#102,#89),#66,.T.);
#350=ADVANCED_FACE('',(#103,#90),#19,.F.);
#351=ADVANCED_FACE('',(#104,#91),#67,.T.);
#352=ADVANCED_FACE('',(#105,#92),#20,.F.);
#353=ADVANCED_FACE('',(#106),#68,.T.);
#354=ADVANCED_FACE('',(#107),#69,.T.);
#355=ADVANCED_FACE('',(#108),#70,.T.);
#356=ADVANCED_FACE('',(#109),#71,.T.);
#357=ADVANCED_FACE('',(#110),#72,.T.);
#358=CLOSED_SHELL('',(#336,#337,#338,#339,#340,#341,#342,#343,#344,#345,
#346,#347,#348,#349,#350,#351,#352,#353,#354,#355,#356,#357));
#359=MANIFOLD_SOLID_BREP('Volumenk\X\F6rper3',#358);
#360=AXIS2_PLACEMENT_3D('placement',#503,#401,#402);
#361=AXIS2_PLACEMENT_3D('',#504,#403,#404);
#362=AXIS2_PLACEMENT_3D('',#506,#405,#406);
#363=AXIS2_PLACEMENT_3D('',#508,#407,#408);
#364=AXIS2_PLACEMENT_3D('',#509,#409,#410);
#365=AXIS2_PLACEMENT_3D('',#511,#411,#412);
#366=AXIS2_PLACEMENT_3D('',#514,#413,#414);
#367=AXIS2_PLACEMENT_3D('',#518,#416,#417);
#368=AXIS2_PLACEMENT_3D('',#528,#423,#424);
#369=AXIS2_PLACEMENT_3D('',#530,#425,#426);
#370=AXIS2_PLACEMENT_3D('',#531,#427,#428);
#371=AXIS2_PLACEMENT_3D('',#533,#429,#430);
#372=AXIS2_PLACEMENT_3D('',#534,#431,#432);
#373=AXIS2_PLACEMENT_3D('',#536,#433,#434);
#374=AXIS2_PLACEMENT_3D('',#537,#435,#436);
#375=AXIS2_PLACEMENT_3D('',#541,#438,#439);
#376=AXIS2_PLACEMENT_3D('',#543,#441,#442);
#377=AXIS2_PLACEMENT_3D('',#547,#445,#446);
#378=AXIS2_PLACEMENT_3D('',#549,#447,#448);
#379=AXIS2_PLACEMENT_3D('',#551,#449,#450);
#380=AXIS2_PLACEMENT_3D('',#562,#456,#457);
#381=AXIS2_PLACEMENT_3D('',#563,#458,#459);
#382=AXIS2_PLACEMENT_3D('',#565,#461,#462);
#383=AXIS2_PLACEMENT_3D('',#567,#463,#464);
#384=AXIS2_PLACEMENT_3D('',#568,#465,#466);
#385=AXIS2_PLACEMENT_3D('',#570,#467,#468);
#386=AXIS2_PLACEMENT_3D('',#571,#469,#470);
#387=AXIS2_PLACEMENT_3D('',#573,#471,#472);
#388=AXIS2_PLACEMENT_3D('',#574,#473,#474);
#389=AXIS2_PLACEMENT_3D('',#576,#475,#476);
#390=AXIS2_PLACEMENT_3D('',#577,#477,#478);
#391=AXIS2_PLACEMENT_3D('',#579,#479,#480);
#392=AXIS2_PLACEMENT_3D('',#580,#481,#482);
#393=AXIS2_PLACEMENT_3D('',#581,#483,#484);
#394=AXIS2_PLACEMENT_3D('',#583,#485,#486);
#395=AXIS2_PLACEMENT_3D('',#584,#487,#488);
#396=AXIS2_PLACEMENT_3D('',#585,#489,#490);
#397=AXIS2_PLACEMENT_3D('',#588,#493,#494);
#398=AXIS2_PLACEMENT_3D('',#590,#496,#497);
#399=AXIS2_PLACEMENT_3D('',#592,#499,#500);
#400=AXIS2_PLACEMENT_3D('',#593,#501,#502);
#401=DIRECTION('axis',(0.,0.,1.));
#402=DIRECTION('refdir',(1.,0.,0.));
#403=DIRECTION('center_axis',(0.,0.,1.));
#404=DIRECTION('ref_axis',(-1.,0.,0.));
#405=DIRECTION('center_axis',(0.,0.,-1.));
#406=DIRECTION('ref_axis',(-1.,0.,0.));
#407=DIRECTION('center_axis',(0.,0.,1.));
#408=DIRECTION('ref_axis',(-1.,0.,0.));
#409=DIRECTION('center_axis',(0.,0.,1.));
#410=DIRECTION('ref_axis',(1.,0.,0.));
#411=DIRECTION('center_axis',(0.,0.,1.));
#412=DIRECTION('ref_axis',(-1.,0.,0.));
#413=DIRECTION('center_axis',(0.,0.,-1.));
#414=DIRECTION('ref_axis',(-0.707106781186548,-0.707106781186547,0.));
#415=DIRECTION('',(1.,1.83697019872103E-016,0.));
#416=DIRECTION('center_axis',(0.,0.,-1.));
#417=DIRECTION('ref_axis',(0.707106781186548,-0.707106781186547,0.));
#418=DIRECTION('',(0.,1.,0.));
#419=DIRECTION('',(-0.866025403784438,0.5,0.));
#420=DIRECTION('',(-1.,0.,0.));
#421=DIRECTION('',(-0.866025403784439,-0.5,0.));
#422=DIRECTION('',(0.,-1.,0.));
#423=DIRECTION('center_axis',(0.,0.,1.));
#424=DIRECTION('ref_axis',(1.,0.,0.));
#425=DIRECTION('center_axis',(0.,0.,1.));
#426=DIRECTION('ref_axis',(1.,0.,0.));
#427=DIRECTION('center_axis',(0.,0.,1.));
#428=DIRECTION('ref_axis',(-1.,0.,0.));
#429=DIRECTION('center_axis',(0.,0.,-1.));
#430=DIRECTION('ref_axis',(-1.,0.,0.));
#431=DIRECTION('center_axis',(0.,0.,1.));
#432=DIRECTION('ref_axis',(1.,0.,0.));
#433=DIRECTION('center_axis',(0.,0.,1.));
#434=DIRECTION('ref_axis',(1.,0.,0.));
#435=DIRECTION('center_axis',(0.,0.,1.));
#436=DIRECTION('ref_axis',(-0.707106781186548,-0.707106781186547,0.));
#437=DIRECTION('',(0.,0.,-1.));
#438=DIRECTION('center_axis',(0.,0.,1.));
#439=DIRECTION('ref_axis',(-0.707106781186548,-0.707106781186547,0.));
#440=DIRECTION('',(0.,0.,1.));
#441=DIRECTION('center_axis',(1.83697019872103E-016,-1.,0.));
#442=DIRECTION('ref_axis',(1.,1.83697019872103E-016,0.));
#443=DIRECTION('',(-1.,-1.83697019872103E-016,0.));
#444=DIRECTION('',(0.,0.,-1.));
#445=DIRECTION('center_axis',(0.,0.,1.));
#446=DIRECTION('ref_axis',(1.,0.,0.));
#447=DIRECTION('center_axis',(0.,0.,1.));
#448=DIRECTION('ref_axis',(1.,0.,0.));
#449=DIRECTION('center_axis',(0.,0.,1.));
#450=DIRECTION('ref_axis',(1.,0.,0.));
#451=DIRECTION('',(0.,1.,0.));
#452=DIRECTION('',(0.866025403784439,0.5,0.));
#453=DIRECTION('',(1.,0.,0.));
#454=DIRECTION('',(0.866025403784438,-0.5,0.));
#455=DIRECTION('',(0.,-1.,0.));
#456=DIRECTION('center_axis',(0.,0.,1.));
#457=DIRECTION('ref_axis',(0.707106781186548,-0.707106781186547,0.));
#458=DIRECTION('center_axis',(0.,0.,1.));
#459=DIRECTION('ref_axis',(0.707106781186548,-0.707106781186547,0.));
#460=DIRECTION('',(0.,0.,1.));
#461=DIRECTION('center_axis',(0.,0.,1.));
#462=DIRECTION('ref_axis',(1.,0.,0.));
#463=DIRECTION('center_axis',(0.,0.,1.));
#464=DIRECTION('ref_axis',(1.,0.,0.));
#465=DIRECTION('center_axis',(0.,0.,1.));
#466=DIRECTION('ref_axis',(1.,0.,0.));
#467=DIRECTION('center_axis',(0.,0.,-1.));
#468=DIRECTION('ref_axis',(1.,0.,0.));
#469=DIRECTION('center_axis',(0.,0.,1.));
#470=DIRECTION('ref_axis',(1.,0.,0.));
#471=DIRECTION('center_axis',(0.,0.,1.));
#472=DIRECTION('ref_axis',(1.,0.,0.));
#473=DIRECTION('center_axis',(0.,0.,1.));
#474=DIRECTION('ref_axis',(1.,0.,0.));
#475=DIRECTION('center_axis',(0.,0.,-1.));
#476=DIRECTION('ref_axis',(1.,0.,0.));
#477=DIRECTION('center_axis',(0.,0.,1.));
#478=DIRECTION('ref_axis',(1.,0.,0.));
#479=DIRECTION('center_axis',(0.,0.,1.));
#480=DIRECTION('ref_axis',(1.,0.,0.));
#481=DIRECTION('center_axis',(0.,0.,1.));
#482=DIRECTION('ref_axis',(1.,0.,0.));
#483=DIRECTION('center_axis',(0.,0.,1.));
#484=DIRECTION('ref_axis',(1.,0.,0.));
#485=DIRECTION('center_axis',(0.,0.,1.));
#486=DIRECTION('ref_axis',(1.,0.,0.));
#487=DIRECTION('center_axis',(0.,0.,1.));
#488=DIRECTION('ref_axis',(1.,0.,0.));
#489=DIRECTION('center_axis',(-0.5,0.866025403784439,0.));
#490=DIRECTION('ref_axis',(-0.866025403784439,-0.5,0.));
#491=DIRECTION('',(0.,0.,1.));
#492=DIRECTION('',(0.,0.,1.));
#493=DIRECTION('center_axis',(0.,1.,0.));
#494=DIRECTION('ref_axis',(-1.,0.,0.));
#495=DIRECTION('',(0.,0.,1.));
#496=DIRECTION('center_axis',(0.5,0.866025403784438,0.));
#497=DIRECTION('ref_axis',(-0.866025403784438,0.5,0.));
#498=DIRECTION('',(0.,0.,1.));
#499=DIRECTION('center_axis',(1.,0.,0.));
#500=DIRECTION('ref_axis',(0.,1.,0.));
#501=DIRECTION('center_axis',(-1.,0.,0.));
#502=DIRECTION('ref_axis',(0.,-1.,0.));
#503=CARTESIAN_POINT('',(0.,0.,0.));
#504=CARTESIAN_POINT('Origin',(4.5,3.5,14.35));
#505=CARTESIAN_POINT('',(7.,3.5,14.2));
#506=CARTESIAN_POINT('Origin',(4.5,3.5,14.2));
#507=CARTESIAN_POINT('',(7.3,3.5,14.5));
#508=CARTESIAN_POINT('Origin',(4.5,3.5,14.5));
#509=CARTESIAN_POINT('Origin',(4.5,11.4434551891171,14.5));
#510=CARTESIAN_POINT('',(7.3,15.5,14.5));
#511=CARTESIAN_POINT('Origin',(4.5,15.5,14.5));
#512=CARTESIAN_POINT('',(2.,3.67394039744206E-016,14.5));
#513=CARTESIAN_POINT('',(0.,2.,14.5));
#514=CARTESIAN_POINT('Origin',(2.,2.,14.5));
#515=CARTESIAN_POINT('',(7.,1.28587913910472E-015,14.5));
#516=CARTESIAN_POINT('',(9.,1.65327317884893E-015,14.5));
#517=CARTESIAN_POINT('',(9.,2.,14.5));
#518=CARTESIAN_POINT('Origin',(7.,2.,14.5));
#519=CARTESIAN_POINT('',(9.,22.0000733344089,14.5));
#520=CARTESIAN_POINT('',(9.,22.0000733344089,14.5));
#521=CARTESIAN_POINT('',(4.67,24.5,14.5));
#522=CARTESIAN_POINT('',(4.67,24.5,14.5));
#523=CARTESIAN_POINT('',(4.33,24.5,14.5));
#524=CARTESIAN_POINT('',(4.33,24.5,14.5));
#525=CARTESIAN_POINT('',(0.,22.0000733344089,14.5));
#526=CARTESIAN_POINT('',(0.,22.0000733344089,14.5));
#527=CARTESIAN_POINT('',(0.,0.,14.5));
#528=CARTESIAN_POINT('Origin',(4.5,3.5,13.5));
#529=CARTESIAN_POINT('',(7.,3.5,12.5));
#530=CARTESIAN_POINT('Origin',(4.5,3.5,12.5));
#531=CARTESIAN_POINT('Origin',(4.5,15.5,14.35));
#532=CARTESIAN_POINT('',(7.,15.5,14.2));
#533=CARTESIAN_POINT('Origin',(4.5,15.5,14.2));
#534=CARTESIAN_POINT('Origin',(4.5,15.5,13.5));
#535=CARTESIAN_POINT('',(7.,15.5,12.5));
#536=CARTESIAN_POINT('Origin',(4.5,15.5,12.5));
#537=CARTESIAN_POINT('Origin',(2.,2.,0.));
#538=CARTESIAN_POINT('',(0.,2.,0.));
#539=CARTESIAN_POINT('',(0.,2.,0.));
#540=CARTESIAN_POINT('',(2.,3.67394039744206E-016,0.));
#541=CARTESIAN_POINT('Origin',(2.,2.,0.));
#542=CARTESIAN_POINT('',(2.,2.77555756156289E-016,0.));
#543=CARTESIAN_POINT('Origin',(0.,0.,0.));
#544=CARTESIAN_POINT('',(7.,1.28587913910472E-015,0.));
#545=CARTESIAN_POINT('',(9.,1.65327317884893E-015,0.));
#546=CARTESIAN_POINT('',(7.,1.38777878078145E-015,0.));
#547=CARTESIAN_POINT('Origin',(4.5,11.4434551891171,0.));
#548=CARTESIAN_POINT('',(2.15,15.5,0.));
#549=CARTESIAN_POINT('Origin',(4.5,15.5,0.));
#550=CARTESIAN_POINT('',(2.15,3.5,0.));
#551=CARTESIAN_POINT('Origin',(4.5,3.5,0.));
#552=CARTESIAN_POINT('',(0.,22.0000733344089,0.));
#553=CARTESIAN_POINT('',(0.,0.,0.));
#554=CARTESIAN_POINT('',(4.33,24.5,0.));
#555=CARTESIAN_POINT('',(0.,22.0000733344089,0.));
#556=CARTESIAN_POINT('',(4.67,24.5,0.));
#557=CARTESIAN_POINT('',(4.33,24.5,0.));
#558=CARTESIAN_POINT('',(9.,22.0000733344089,0.));
#559=CARTESIAN_POINT('',(4.67,24.5,0.));
#560=CARTESIAN_POINT('',(9.,2.,0.));
#561=CARTESIAN_POINT('',(9.,22.0000733344089,0.));
#562=CARTESIAN_POINT('Origin',(7.,2.,0.));
#563=CARTESIAN_POINT('Origin',(7.,2.,0.));
#564=CARTESIAN_POINT('',(9.,2.,0.));
#565=CARTESIAN_POINT('Origin',(4.5,15.5,0.));
#566=CARTESIAN_POINT('',(2.15,15.5,11.5));
#567=CARTESIAN_POINT('Origin',(4.5,15.5,11.5));
#568=CARTESIAN_POINT('Origin',(4.5,15.5,11.5));
#569=CARTESIAN_POINT('',(3.15,15.5,11.5));
#570=CARTESIAN_POINT('Origin',(4.5,15.5,11.5));
#571=CARTESIAN_POINT('Origin',(4.5,3.5,0.));
#572=CARTESIAN_POINT('',(2.15,3.5,11.5));
#573=CARTESIAN_POINT('Origin',(4.5,3.5,11.5));
#574=CARTESIAN_POINT('Origin',(4.5,3.5,11.5));
#575=CARTESIAN_POINT('',(3.15,3.5,11.5));
#576=CARTESIAN_POINT('Origin',(4.5,3.5,11.5));
#577=CARTESIAN_POINT('Origin',(4.5,15.5,12.5));
#578=CARTESIAN_POINT('',(3.15,15.5,12.5));
#579=CARTESIAN_POINT('Origin',(4.5,15.5,12.5));
#580=CARTESIAN_POINT('Origin',(4.5,15.5,-15.3579972536672));
#581=CARTESIAN_POINT('Origin',(4.5,3.5,12.5));
#582=CARTESIAN_POINT('',(3.15,3.5,12.5));
#583=CARTESIAN_POINT('Origin',(4.5,3.5,12.5));
#584=CARTESIAN_POINT('Origin',(4.5,3.5,-15.3579972536672));
#585=CARTESIAN_POINT('Origin',(4.33,24.5,0.));
#586=CARTESIAN_POINT('',(0.,22.0000733344089,0.));
#587=CARTESIAN_POINT('',(4.33,24.5,0.));
#588=CARTESIAN_POINT('Origin',(4.67,24.5,0.));
#589=CARTESIAN_POINT('',(4.67,24.5,0.));
#590=CARTESIAN_POINT('Origin',(9.,22.0000733344089,0.));
#591=CARTESIAN_POINT('',(9.,22.0000733344089,0.));
#592=CARTESIAN_POINT('Origin',(9.,0.,0.));
#593=CARTESIAN_POINT('Origin',(0.,22.0000733344089,0.));
#594=UNCERTAINTY_MEASURE_WITH_UNIT(LENGTH_MEASURE(0.01),#598,
'DISTANCE_ACCURACY_VALUE',
'Maximum model space distance between geometric entities at asserted c
onnectivities');
#595=UNCERTAINTY_MEASURE_WITH_UNIT(LENGTH_MEASURE(1.E-006),#598,
'DISTANCE_ACCURACY_VALUE',
'Maximum model space distance between geometric entities at asserted c
onnectivities');
#596=(
GEOMETRIC_REPRESENTATION_CONTEXT(3)
GLOBAL_UNCERTAINTY_ASSIGNED_CONTEXT((#594))
GLOBAL_UNIT_ASSIGNED_CONTEXT((#598,#601,#599))
REPRESENTATION_CONTEXT('','3D')
);
#597=(
GEOMETRIC_REPRESENTATION_CONTEXT(3)
GLOBAL_UNCERTAINTY_ASSIGNED_CONTEXT((#595))
GLOBAL_UNIT_ASSIGNED_CONTEXT((#598,#601,#599))
REPRESENTATION_CONTEXT('','3D')
);
#598=(
LENGTH_UNIT()
NAMED_UNIT(*)
SI_UNIT(.MILLI.,.METRE.)
);
#599=(
NAMED_UNIT(*)
SI_UNIT($,.STERADIAN.)
SOLID_ANGLE_UNIT()
);
#600=DIMENSIONAL_EXPONENTS(0.,0.,0.,0.,0.,0.,0.);
#601=(
CONVERSION_BASED_UNIT('degree',#603)
NAMED_UNIT(#600)
PLANE_ANGLE_UNIT()
);
#602=(
NAMED_UNIT(*)
PLANE_ANGLE_UNIT()
SI_UNIT($,.RADIAN.)
);
#603=PLANE_ANGLE_MEASURE_WITH_UNIT(PLANE_ANGLE_MEASURE(0.01745329252),#602);
#604=SHAPE_DEFINITION_REPRESENTATION(#605,#606);
#605=PRODUCT_DEFINITION_SHAPE('',$,#608);
#606=SHAPE_REPRESENTATION('',(#360),#596);
#607=DESIGN_CONTEXT('part definition',#612,'design');
#608=PRODUCT_DEFINITION('DBF63_00-14 Aufsatzbacken voll',
'DBF63_00-14 Aufsatzbacken voll',#609,#607);
#609=PRODUCT_DEFINITION_FORMATION('',$,#614);
#610=PRODUCT_RELATED_PRODUCT_CATEGORY('DBF63_00-14 Aufsatzbacken voll',
'DBF63_00-14 Aufsatzbacken voll',(#614));
#611=APPLICATION_PROTOCOL_DEFINITION('international standard',
'ap203_configuration_controlled_3d_design_of_mechanical_parts_and_asse
mblies_mim_lf',2004,#612);
#612=APPLICATION_CONTEXT(
'Configuration Controlled 3D Design of Mechanical Parts and Assemblies');
#613=MECHANICAL_CONTEXT('part definition',#612,'mechanical');
#614=PRODUCT('DBF63_00-14 Aufsatzbacken voll',
'DBF63_00-14 Aufsatzbacken voll',$,(#613));
#615=PRESENTATION_STYLE_ASSIGNMENT((#616));
#616=SURFACE_STYLE_USAGE(.BOTH.,#617);
#617=SURFACE_SIDE_STYLE($,(#618));
#618=SURFACE_STYLE_FILL_AREA(#619);
#619=FILL_AREA_STYLE($,(#620));
#620=FILL_AREA_STYLE_COLOUR($,#621);
#621=COLOUR_RGB('',0.713725490196078,0.427450980392157,0.176470588235294);
ENDSEC;
END-ISO-10303-21;
